Song name
# A B C D E F G H I J K L M N O P Q R S T U V W X Y Z

Devilish - I Neednt You tab

Intro
e|------------------------------------------------------------------------|
B|------------------------------------------------------------------------|
G|------------------------------------------------------------------------|
D|---10-------10-------10-------10-------10-------10-------10--------10---|
A|8-8----8-8-8---8-7-7----7-7-7----7-8-8----8-8-8----8-7-7----7-7-7-----8~|
E|------------------------------------------------------------------------|


Verse
e|-----------------------------------|
B|-----------------------------------|
G|-----------------------------------|
D|-----------------------------------| x5
A|------5-------5-------5-------5----|
E|--3-3---3-3-3---0-2-2---2-2-2---2--|

e|-------------------|
B|-------------------|
G|-------------------|
D|-------------------|
A|------5-------5----|
E|--3-3---3-3-3---3~-|

Chorus
e|--------------------------|
B|--------------------------|
G|--------------------------|
D|-5-5-5-555--7-7-7-777-----| x8
A|-5-5-5-555--7-7-7-777-----|
E|-3-3-3-333--5-5-5-555-----|

Verse Intro
e|-----------------------------------|
B|-----------------------------------|
G|-----------------------------------|
D|-----------------------------------| x2
A|------5-------5-------5-------5----|
E|--3-3---3-3-3---0-2-2---2-2-2---0--|

Verse 2
e|-----------------------------------|
B|-----------------------------------|
G|-----------------------------------|
D|-----------------------------------| x5
A|------5-------5-------5-------5----|
E|--3-3---3-3-3---0-2-2---2-2-2---0--|

Chorus
e|--------------------------|
B|--------------------------|
G|--------------------------|
D|-5-5-5-555--7-7-7-777-----| x8
A|-5-5-5-555--7-7-7-777-----|
E|-3-3-3-333--5-5-5-555-----|

Verse 3
e|-----------------------------------|
B|-----------------------------------|
G|-----------------------------------|
D|-----------------------------------| x6
A|------5-------5-------5-------5----|
E|--3-3---3-3-3---0-2-2---2-2-2---0--|

Chorus
e|--------------------------|
B|--------------------------|
G|--------------------------|
D|-5-5-5-555--7-7-7-777-----| x8
A|-5-5-5-555--7-7-7-777-----|
E|-3-3-3-333--5-5-5-555-----|
Tap to rate this tab
 
# A B C D E F G H I J K L M N O P Q R S T U V W X Y Z