Song name
# A B C D E F G H I J K L M N O P Q R S T U V W X Y Z

Devilish - Nichts Wird Besser tab

Nichts Wird Besser
Devilish (Little Tokio Hotel)

Intro
e |-------------------------------------------------------|
B |--1----1---1----1--------------------------------------|
G |----0---0----2---2-------------------------------------| (x2)
D |------2--2-----2--2------------------------------------|
A |-------------------------------------------------------|
E |-------------------------------------------------------|

Verse 1

e |-------------------------------------------------------|
B |--1----1---1----1--------------------------------------|
G |----0---0----2---2-------------------------------------| (x5)
D |------2--2-----2--2------------------------------------|
A |------------------------------3--33-33--0--00-00-------|
E |-------------------------------------------------------|

Chorus
e |-------------------------------------------------------|
B |---2-2---2----2-2----2---------------------------------|
G |---2-2---2----2-2----2---------------------------------| (x3)
D |---2-2---2----2-2----2---------------------------------|
A |-0-----0----2------2-----------------------------------|
E |-------------------------------------------------------|

e |-------------------------------------------------------|
B |---2-2---2----2-2----2---------------------------------|
G |---2-2---2----2-2----2---------------------------------| (x1)
D |---2-2---2----2-2----2---------------------------------|
A |-0-----0----2------2--------0-00-00--2-22-22-----------|
E |-------------------------------------------------------|

Verse 2

e |-------------------------------------------------------|
B |--1----1---1----1--------------------------------------|
G |----0---0----2---2-------------------------------------| (x7)
D |------2--2-----2--2------------------------------------|
A |------------------------------3--33-33--0--00-00-------|
E |-------------------------------------------------------|

Chorus
e |-------------------------------------------------------|
B |---2-2---2----2-2----2---------------------------------|
G |---2-2---2----2-2----2---------------------------------| (x7)
D |---2-2---2----2-2----2---------------------------------|
A |-0-----0----2------2-----------------------------------|
E |-------------------------------------------------------|

e |-------------------------------------------------------|
B |---2-2---2----2-2----2---------------------------------|
G |---2-2---2----2-2----2---------------------------------| (x1)
D |---2-2---2----2-2----2---------------------------------|
A |-0-----0----2------2--------0-00-00--2-22-22-----------|
E |-------------------------------------------------------|
Tap to rate this tab
# A B C D E F G H I J K L M N O P Q R S T U V W X Y Z