Song name
# A B C D E F G H I J K L M N O P Q R S T U V W X Y Z

Devilish - Lebe Die Sekunde tab

Lebe Die Sekunde
Devilish

Intro (x2)

E |---1-1----1------0-0-----0----------------------------|
B |---3-3---3-------1-1----1-----------------------------|
G |---2-2--2--------0-0---0------------------------------|
D |-0-----0---------2-2----------------------------------|
A |---------------3------3-------------------------------|
E |------------------------------------------------------|

Verse 1
E |---1-1----1------0-0-----0----------------------------|
B |---3-3---3-------1-1----1-----------------------------|
G |---2-2--2--------0-0---0------------------------------| (x9)
D |-0-----0---------2-2----------------------------------|
A |---------------3------3-------------------------------|
E |------------------------------------------------------|

Chorus
E |---------------------------------------------------|
B |---------------------------------------------------|
G |-------------------5-5--7-7-7-7-7------------------| (x6)
D |-5--5-5--5-5--55---5-5--7-7-7-7-7------------------|
A |-5--5-5--5-5--55---3-3--5-5-5-5-5------------------|
E |-3--3-3--3-3--33-----------------------------------|

Verse 2
E |---1-1----1------0-0-----0----------------------------|
B |---3-3---3-------1-1----1-----------------------------|
G |---2-2--2--------0-0---0------------------------------| (x6
D |-0-----0---------2-2----------------------------------|
A |---------------3------3-------------------------------|
E |------------------------------------------------------|

Chorus
E |---------------------------------------------------|
B |---------------------------------------------------|
G |-------------------5-5--7-7-7-7-7------------------| (x6)
D |-5--5-5--5-5--55---5-5--7-7-7-7-7------------------|
A |-5--5-5--5-5--55---3-3--5-5-5-5-5------------------|
E |-3--3-3--3-3--33-----------------------------------|

Intro (x3)

E |---1-1----1------0-0-----0----------------------------|
B |---3-3---3-------1-1----1-----------------------------|
G |---2-2--2--------0-0---0------------------------------|
D |-0-----0---------2-2----------------------------------|
A |---------------3------3-------------------------------|
E |------------------------------------------------------|
Tap to rate this tab
 
# A B C D E F G H I J K L M N O P Q R S T U V W X Y Z