Song name
# A B C D E F G H I J K L M N O P Q R S T U V W X Y Z

Devilish - Its So Hard To Live tab

It’s So Hard to Live
Devilish

Chorus
e |-----------------------------------------|
B |-----------------------------------------|
G |-5-5--7-7-7-7--2-2--2-2-2-2--------------|
D |-5-5--7-7-7-7--2-2--2-2-2-2--------------| (x5)
A |-3-3--5-5-5-5--0-0--0-0-0-0--------------|
E |-----------------------------------------|

Verse 1
It is hard to live in the world…. 

E |------------------------------------|
B |----2-----2-2---2-----2-2-----------|
G |---2-2---2-2---2-2---2-2------------| (x6)
D |--2---2-2-----2---2-2---------------|
A |-0-----0-----2-----2----------------|
E |------------------------------------|

Chorus
e |-----------------------------------------|
B |-----------------------------------------|
G |-5-5--7-7-7-7--2-2--2-2-2-2--------------|
D |-5-5--7-7-7-7--2-2--2-2-2-2--------------| (x7)
A |-3-3--5-5-5-5--0-0--0-0-0-0--------------|
E |-----------------------------------------|

Verse 2
E |------------------------------------|
B |----2-----2-2---2-----2-2-----------|
G |---2-2---2-2---2-2---2-2------------| (x8)
D |--2---2-2-----2---2-2---------------|
A |-0-----0-----2-----2----------------|
E |------------------------------------|

Chorus
e |-----------------------------------------|
B |-----------------------------------------|
G |-5-5--7-7-7-7--2-2--2-2-2-2--------------|
D |-5-5--7-7-7-7--2-2--2-2-2-2--------------| (x9)
A |-3-3--5-5-5-5--0-0--0-0-0-0--------------|
E |-----------------------------------------|

Hope u like it
I will be tabbing out the whole Album :D

Liebe, Tatiana <3
Tap to rate this tab
 
# A B C D E F G H I J K L M N O P Q R S T U V W X Y Z