Song name
# A B C D E F G H I J K L M N O P Q R S T U V W X Y Z

Devin The Dude - Right Now tab

-------------------------------------------------------------------------------
			     Right now - Devin the Dude
-------------------------------------------------------------------------------

Chourds:

G#m       C#      A#m       G#7sus4         2nd C#
-4-      - 9-     -6-        -4-              -4-|
-4-      - 9-     -6-        -4-              -6-|
-4-      -10-     -6-        -6-              -6-|
-6-      -11-     -8-        -4-              -6-|
-6-      -11-     -8-        -6-              -4-|
-4-      - 9-     -6-       -(4)-             ---|

key: G#m

 G#m                        C#    A#m   G#7sus4
----------4-----------------------------4-------|
-4--------------------------------------------4-|
----4----------------------10----6---------6----|    (play 3 times)
-------6-------------------11----8--------------|
----------------------------------------4-------|
-4--------------4--6--7----9-----6--------------|


 G#m                            2nd C#
----------4----------------------------4-------|
-4----------------------------------------6--4-|
----4------------------------------------------|       (start from the beginning)
-------6---------------------------------------|
---------------------------------4-------------|
-4--------------4--6--7------------------------|

tabbed by rainer
Tap to rate this tab
 
# A B C D E F G H I J K L M N O P Q R S T U V W X Y Z