Song name
# A B C D E F G H I J K L M N O P Q R S T U V W X Y Z

Devin Townsend Project - Supercrush tab

Tuning: B, F#, B, F#, B, D#
It's not to hard and easy to learn and the way I learned it.
This is my first tab. I hope you enjoy it.

D#|--------------------------------------------------|
B |--------------------------------------------------|
F#|--------------------------------------------------|
B |--------------------------------------------------|
F#|----0-0--0-0--0-0--0-0--0-0--0-0--0-0--0-0--------|
B |----0-0--0-0--0-0--0-0--0-0--0-0--0-0--0-0--------|

D#|--------------------------------------------------|
B |--------------------------------------------------|
F#|--------------------------------------------------|
B |--------------------------------------------------|
F#|----0-0--0-0--0-0--0-0--0-0--0-0--0-0--0-0--------|
B |----0-0--0-0--0-0--0-0--0-0--0-0--0-0--0-0--------|

D#|--------------------------------------------------|
B |--------------------------------------------------|
F#|--------------------------------------------------|
B |--------------------------------------------------|
F#|----0-0--0-0--0-0--0-0--0-0--0-0--0-0--0-0--------|
B |----0-0--0-0--0-0--0-0--0-0--0-0--0-0--0-0--------|

D#|--------------------------------------------------|
B |--------------------------------------------------|
F#|--------------------------------------------------|
B |--------------------------------------------------|
F#|----0-0--0-0--0-0--0-0--0-0--0-0--0-0-------------|
B |----0-0--0-0--0-0--0-0--0-0--0-0--0-0-------------|

D#|--------------------------------------------------|
B |----5-5-----5-5-----4-4-----4-4-----7-7-7-7-------|
F#|--------------------------------------------------|
B |----5-5-----5-5-----4-4-----4-4-----7-7-7-7-------|
F#|--------------------------------------------------|
B |---------0-------0-------0-------0----------------|

D#|--------------------------------------------------|
B |----5-5-----5-5-----3-3-----3-3-----3-3-3-3-------|
F#|--------------------------------------------------|
B |----5-5-----5-5-----3-3-----3-3-----3-3-3-3-------|
F#|--------------------------------------------------|
B |---------0-------0-------0-------0----------------|

D#|--------------------------------------------------|
B |----5-5-----5-5-----4-4-----4-4-----7-7-7-7-------|
F#|--------------------------------------------------|
B |----5-5-----5-5-----4-4-----4-4-----7-7-7-7-------|
F#|--------------------------------------------------|
B |---------0-------0-------0-------0----------------|

D#|--------------------------------------------------|
B |----8-8-----8-8-----3-3-----3-3-------------------|
F#|--------------------------------------------------|
B |----8-8-----8-8-----3-3-----3-3-----6-6-6-6-------|
F#|------------------------------------4-4-4-4-------|
B |---------0-------0-------0-------0----------------|

D#|--------------------------------------------------|
B |----5-5-----5-5-----4-4-----4-4-----7-7-7-7-------|
F#|--------------------------------------------------|
B |----5-5-----5-5-----4-4-----4-4-----7-7-7-7-------|
F#|--------------------------------------------------|
B |---------0-------0-------0-------0----------------|

D#|--------------------------------------------------|
B |----5-5-----5-5-----3-3-----3-3-----3-3-3-3-------|
F#|--------------------------------------------------|
B |----5-5-----5-5-----3-3-----3-3-----3-3-3-3-------|
F#|--------------------------------------------------|
B |---------0-------0-------0-------0----------------|


D#|--------------------------------------------------|
B |--------------------------------------------------|
F#|--------------------------------------------------|
B |--------------------------------------------------|
F#|----5-5-5-5-5-5-5-5--5-5-5-5-5-5-5-5--------------|
B |----5-5-5-5-5-5-5-5--5-5-5-5-5-5-5-5--------------|

D#|--------------------------------------------------|
B |--------------------------------------------------|
F#|--------------------------------------------------|
B |--------------------------------------------------|
F#|----8-8-8-8-8-8-8-8--8-8-8-8-8-8-8-8--------------|
B |----8-8-8-8-8-8-8-8--8-8-8-8-8-8-8-8--------------|

(Rest for 12 measures)

D#|--------------------------------------------------|
B |----6-6-6-6-6-6-6-6-6-6-6-6-----------------------|
F#|--------------------------------------------------|
B |----6-6-6-6-6-6-6-6-6-6-6-6-----------------------|
F#|-----------------------------x-x-x-x--------------|
B |--------------------------------------------------|

D#|--------------------------------------------------|
B |----5-5-----5-5-----4-4-----4-4-----7-7-7-7-------|
F#|--------------------------------------------------|
B |----5-5-----5-5-----4-4-----4-4-----7-7-7-7-------|
F#|--------------------------------------------------|
B |---------0-------0-------0-------0----------------|

D#|--------------------------------------------------|
B |----5-5-----5-5-----3-3-----3-3-----3-3-3-3-------|
F#|--------------------------------------------------|
B |----5-5-----5-5-----3-3-----3-3-----3-3-3-3-------|
F#|--------------------------------------------------|
B |---------0-------0-------0-------0----------------|

D#|--------------------------------------------------|
B |----5-5-----5-5-----4-4-----4-4-----7-7-7-7-------|
F#|--------------------------------------------------|
B |----5-5-----5-5-----4-4-----4-4-----7-7-7-7-------|
F#|--------------------------------------------------|
B |---------0-------0-------0-------0----------------|

D#|--------------------------------------------------|
B |----8-8-----8-8-----3-3-----3-3-------------------|
F#|--------------------------------------------------|
B |----8-8-----8-8-----3-3-----3-3-----6-6-6-6-------|
F#|------------------------------------4-4-4-4-------|
B |---------0-------0-------0-------0----------------|

D#|--------------------------------------------------|
B |----5-5-----5-5-----4-4-----4-4-----7-7-7-7-------|
F#|--------------------------------------------------|
B |----5-5-----5-5-----4-4-----4-4-----7-7-7-7-------|
F#|--------------------------------------------------|
B |---------0-------0-------0-------0----------------|

D#|--------------------------------------------------|
B |----5-5-----5-5-----3-3-----3-3-----3-3-3-3-------|
F#|--------------------------------------------------|
B |----5-5-----5-5-----3-3-----3-3-----3-3-3-3-------|
F#|--------------------------------------------------|
B |---------0-------0-------0-------0----------------|

D#|--------------------------------------------------|
B |--------------------------------------------------|
F#|--------------------------------------------------|
B |--------------------------------------------------|
F#|----5-5-5-5-5-5-5-5--5-5-5-5-5-5-5-5--------------|
B |----5-5-5-5-5-5-5-5--5-5-5-5-5-5-5-5--------------|

D#|--------------------------------------------------|
B |--------------------------------------------------|
F#|--------------------------------------------------|
B |--------------------------------------------------|
F#|----8-8-8-8-8-8-8-8--8-8-8-8-8-8-8-8--------------|
B |----8-8-8-8-8-8-8-8--8-8-8-8-8-8-8-8--------------|

(Rest for another 12 measures)

D#|--------------------------------------------------|
B |----6-6-6-6-6-6-6-6-6-6-6-6-----------------------|
F#|--------------------------------------------------|
B |----6-6-6-6-6-6-6-6-6-6-6-6-----------------------|
F#|-----------------------------x-x-x-x--------------|
B |--------------------------------------------------|

D#|--------------------------------------------------|
B |----5-5-----5-5-----4-4-----4-4-----7-7-7-7-------|
F#|--------------------------------------------------|
B |----5-5-----5-5-----4-4-----4-4-----7-7-7-7-------|
F#|--------------------------------------------------|
B |---------0-------0-------0-------0----------------|

D#|--------------------------------------------------|
B |----5-5-----5-5-----3-3-----3-3-----3-3-3-3-------|
F#|--------------------------------------------------|
B |----5-5-----5-5-----3-3-----3-3-----3-3-3-3-------|
F#|--------------------------------------------------|
B |---------0-------0-------0-------0----------------|

D#|--------------------------------------------------|
B |----5-5-----5-5-----4-4-----4-4-----7-7-7-7-------|
F#|--------------------------------------------------|
B |----5-5-----5-5-----4-4-----4-4-----7-7-7-7-------|
F#|--------------------------------------------------|
B |---------0-------0-------0-------0----------------|

D#|--------------------------------------------------|
B |----8-8-----8-8-----3-3-----3-3-------------------|
F#|--------------------------------------------------|
B |----8-8-----8-8-----3-3-----3-3-----6-6-6-6-------|
F#|------------------------------------4-4-4-4-------|
B |---------0-------0-------0-------0----------------|

D#|--------------------------------------------------|
B |----5-5-----5-5-----4-4-----4-4-----7-7-7-7-------|
F#|--------------------------------------------------|
B |----5-5-----5-5-----4-4-----4-4-----7-7-7-7-------|
F#|--------------------------------------------------|
B |---------0-------0-------0-------0----------------|

D#|--------------------------------------------------|
B |----5-5-----5-5-----3-3-----3-3-----3-3-3-3-------|
F#|--------------------------------------------------|
B |----5-5-----5-5-----3-3-----3-3-----3-3-3-3-------|
F#|--------------------------------------------------|
B |---------0-------0-------0-------0----------------|

   P.M-------------------------------------------------|
D#|----------------------------------------------------|
B |----------------------------------------------------|
F#|----------------------------------------------------|
B |----------------------------------------------------|
F#|----5-5-5-5-5-5-5-5-5-5-5-5-5-5-5-5-5---------------|
B |----5-5-5-5-5-5-5-5-5-5-5-5-5-5-5-5-5---------------|

   P.M-------------------------------------------------|
D#|----------------------------------------------------|
B |----------------------------------------------------|
F#|----------------------------------------------------|
B |----------------------------------------------------|
F#|----8-8-8-8-8-8-8-8-8-8-8-8-8-8-8-8-8---------------|
B |----8-8-8-8-8-8-8-8-8-8-8-8-8-8-8-8-8---------------|

(Repeat these 2 sections 3 more times but only palm mute last 2x.)

D#|--------------------------------------------------|
B |--------------------------------------------------|
F#|--------------------------------------------------|
B |--------------------------------------------------|
F#|----5-5---5-5---5-5---5-5---5-5---5---------------|
B |----5-5-0-5-5-0-5-5-0-5-5-0-5-5-0-5---------------|

D#|--------------------------------------------------|
B |--------------------------------------------------|
F#|--------------------------------------------------|
B |--------------------------------------------------|
F#|----8-8-8-8-8-8-8-8-8-8-8-8-8-8-8-8---------------|
B |----8-8-8-8-8-8-8-8-8-8-8-8-8-8-8-8---------------|

(Repeat these 2 sections 3 more times.)

D#|--------------------------------------------------|
B |----5-5---5-5---5-5---5-5---5-5---5---------------|
F#|--------------------------------------------------|
B |----5-5---5-5---5-5---5-5---5-5---5---------------|
F#|--------------------------------------------------|
B |----5-5-0-5-5-0-5-5-0-5-5-0-5-5-0-5---------------|

D#|--------------------------------------------------|
B |----8-8---8-8---8-8---8-8---8-8---8---------------|
F#|--------------------------------------------------|
B |----8-8---8-8---8-8---8-8---8-8---8---------------|
F#|--------------------------------------------------|
B |----8-8-0-8-8-0-8-8-0-8-8-0-8-8-0-8---------------|

(Repeat these 2 sections 1x.)


D#|--------------------------------------------------|
B |--------------------------------------------------|
F#|--------------------------------------------------|
B |--------------------------------------------------|
F#|----0-0--0-0--0-0--0-0----------------------------|
B |----0-0--0-0--0-0--0-0----------------------------|

D#|--------------------------------------------------|
B |--------------------------------------------------|
F#|--------------------------------------------------|
B |--------------------------------------------------|
F#|----8-----8-----8-----8-----11-11-11-11-----------|
B |----8-----8-----8-----8-----11-11-11-11-----------|

D#|--------------------------------------------------|
B |----5-5-----5-5-----4-4-----4-4-----7-7-7-7-------|
F#|--------------------------------------------------|
B |----5-5-----5-5-----4-4-----4-4-----7-7-7-7-------|
F#|--------------------------------------------------|
B |---------0-------0-------0-------0----------------|

D#|--------------------------------------------------|
B |----5-5-----5-5-----3-3-----3-3-----3-3-3-3-------|
F#|--------------------------------------------------|
B |----5-5-----5-5-----3-3-----3-3-----3-3-3-3-------|
F#|--------------------------------------------------|

D#|--------------------------------------------------|
B |----5-5-----5-5-----4-4-----4-4-----7-7-7-7-------|
F#|--------------------------------------------------|
B |----5-5-----5-5-----4-4-----4-4-----7-7-7-7-------|
F#|--------------------------------------------------|
B |---------0-------0-------0-------0----------------|

D#|--------------------------------------------------|
B |----8-8-----8-8-----3-3-----3-3-------------------|
F#|--------------------------------------------------|
B |----8-8-----8-8-----3-3-----3-3-----6-6-6-6-------|
F#|------------------------------------4-4-4-4-------|
B |---------0-------0-------0-------0----------------|

D#|--------------------------------------------------|
B |----5-5-----5-5-----4-4-----4-4-----7-7-7-7-------|
F#|--------------------------------------------------|
B |----5-5-----5-5-----4-4-----4-4-----7-7-7-7-------|
F#|--------------------------------------------------|
B |---------0-------0-------0-------0----------------|

D#|--------------------------------------------------|
B |----5-5-----5-5-----3-3-----3-3-----3-3-3-3-------|
F#|--------------------------------------------------|
B |----5-5-----5-5-----3-3-----3-3-----3-3-3-3-------|
F#|--------------------------------------------------|

D#|--------------------------------------------------|
B |--------------------------------------------------|
F#|--------------------------------------------------|
B |--------------------------------------------------|
F#|----5-5-5-5-5-5-5-5-5-5-5-5-5-5-5-5-5-------------|
B |----5-5-5-5-5-5-5-5-5-5-5-5-5-5-5-5-5-------------|

D#|--------------------------------------------------|
B |--------------------------------------------------|
F#|--------------------------------------------------|
B |--------------------------------------------------|
F#|----8-8-8-8-8-8-8-8-8-8-8-8-8-8-8-8---------------|
B |----8-8-8-8-8-8-8-8-8-8-8-8-8-8-8-8---------------|

D#|--------------------------------------------------|
B |--------------------------------------------------|
F#|--------------------------------------------------|
B |--------------------------------------------------|
F#|----5-5-5-5-5-5-5-5-5-5-5-5-5-5-5-5-5-------------|
B |----5-5-5-5-5-5-5-5-5-5-5-5-5-5-5-5-5-------------|

D#|--------------------------------------------------|
B |--------------------------------------------------|
F#|--------------------------------------------------|
B |--------------------------------------------------|
F#|----8-8-8-8-8-8-8-8-8-8-8-8-8-8-8-8---------------|
B |----8-8-8-8-8-8-8-8-8-8-8-8-8-8-8-8---------------|

D#|--------------------------------------------------|
B |--------------------------------------------------|
F#|--------------------------------------------------|
B |--------------------------------------------------|
F#|----0-0--0-0--0-0--0-0--0-0--0--------------------|
B |----0-0--0-0--0-0--0-0--0-0--0--------------------|

D#|--------------------------------------------------|
B |--------------------------------------------------|
F#|--------------------------------------------------|
B |--------------------------------------------------|
F#|----0-0--0-0--0-0--0-0--0-0--0--------------------|
B |----0-0--0-0--0-0--0-0--0-0--0--------------------|

D#|--------------------------------------------------|
B |--------------------------------------------------|
F#|--------------------------------------------------|
B |--------------------------------------------------|
F#|----0-0--0-0--0-0--0-0--0-0-----------------------|
B |----0-0--0-0--0-0--0-0--0-0-----------------------|

D#|--------------------------------------------------|
B |--------------------------------------------------|
F#|--------------------------------------------------|
B |--------------------------------------------------|
F#|----0-0--0-0--0-0---------------------------------|
B |----0-0--0-0--0-0---------------------------------|

Just play along with the song, and you'll do just fine and please, don't hesitate to 
contact me and ask questions. rogersk41@yahoo.com
Tap to rate this tab
 
# A B C D E F G H I J K L M N O P Q R S T U V W X Y Z