Song name
# A B C D E F G H I J K L M N O P Q R S T U V W X Y Z

Devin Townsend Project - Juular tab

Intro

IIIIIIIIIIIIIIIIIIIIIIIIIIIIIIIIIIIIIIAAAAAAAAAAAAH!!!!!!!!!!


E|----------------------------------------------------------|
C|----------------------------------------------------------|
G|----------------------------------------------------------|
C|-----8------8------8------8------8------8------8----------|
G|-----10-----10-----10-----10-----9------9------9----------|
C|-5pm-5pm5pm-5pm5pm-5pm5pm-5pm5pm-5pm-5pm5pm-5pm5pm5pm-----|

E|----------------------------------------------------------|
C|----------------------------------------------------------|
G|----------------------------------------------------------|
C|-----8------8------8------8------8------8------8----------|
G|-----9------9------9------9------9------9------9----------|
C|-6pm-6pm6pm-6pm6pm-6pm6pm-6pm5pm-5pm5pm-5pm7pm-5pm5pm-----|        x2



E|-----------------------------------------------------------|
C|-----------------------------------------------------------|
G|-----------------------------------------------------------|
C|-----5------5------5------5------5-----5------5------5-----|
G|-----7------7------7------7------7-----7------7------7-----|
C|-3pm-3pm3pm-3pm3pm-3pm3pm-3pm3pm-3pm--3pm-3pm5pm-3pm3pm----|




E|----------------------------------------------------------|
C|----------------------------------------------------------|
G|----------------------------------------------------------|
C|-----5------5------5------5-------------------------------|
G|-----7------7------7------7--3-6-5-7-3-6-5-3-3------------|
C|-3pm-3pm3pm-3pm3pm-3pm3pm-3pm3-6-5-7-3-6-5-3-3------------|(pm)




E|----------------------------------------------------------|
C|----------------------------------------------------------|
G|----------------------------------------------------------|
C|-----5------5------5------5------5------5------5------5---|
G|-----7------7------7------7------7------7------7------7---|
C|-3pm-3pm3pm-3pm3pm-3pm3pm-3pm3pm-3pm3pm-3pm5pm-3pm3pm-3pm-|


E|----------------------------------------------------------|
C|----------------------------------------------------------|
G|----------------------------------------------------------|
C|-----5------5------5------5-------------------------------|
G|-----7------7------7------7--3-6-5-7-3-6-5-3-3------------|
C|-3pm-3pm3pm-3pm3pm-3pm3pm-3pm3-6-5-7-3-6-5-3-3------------|(pm)


E|----------------------------------------------------------|
C|----------------------------------------------------------|
G|----------------------------------------------------------|
C|-----8------8------8------8-------8------8------8------8--|
G|-----10-----10-----10-----10------9------9------9------9--|
C|-5pm-5--5pm-5--5pm-5--5pm-5---5pm-5--5pm-5--5pm-5--5pm-5--|(pm)

E|----------------------------------------------------------|
C|----------------------------------------------------------|
G|----------------------------------------------------------|
C|-----8------8------8------8-------8------8------8------8--|
G|-----9------9------9------9-------9------9------9------9--|
C|-6pm-6--6pm-6--6pm-6--6pm-6---5pm-5--5pm-5--5pm-5--5pm-7--|(pm)  x2



E|----------------------------------------------------------|
C|----------------------------------------------------------|
G|----------------------------------------------------------|
C|-----5------5------5------5-------5------5------5------5--|
G|-----7------7------7------7-------7------7------7------7--|
C|-3pm-3--3pm-3--3pm-3--3pm-3---3pm-3--3pm-3--3pm-3--3pm-5--|(pm)


E|----------------------------------------------------------|
C|----------------------------------------------------------|
G|----------------------------------------------------------|
C|-----5------5------5------5-------5------5------5------5--|
G|-----7------7------7------7-------7------7------7------7--|
C|-3pm-3--3pm-3--3pm-3--3pm-3---3pm-3--3pm-3--3pm-3--3pm-5--|(pm)



E|----------------------------------------------------------|
C|----------------------------------------------------------|
G|----------------------------------------------------------|
C|-----8------8------8------8-------8------8------8---------|
G|-----10-----10-----10-----10------9------9------9---------|
C|-5pm-5--5pm-5--5pm-5--5pm-5---5pm-5--5pm-5--5pm-5---------|(pm)


E|----------------------------------------------------------|
C|----------------------------------------------------------|
G|----------------------------------------------------------|
C|-----8------8------8-----8--------------------------------|
G|-----10-----10-----10----10--5-10-9-10-5-10-9-7-7---------|
C|-6pm-6--6pm-6--6pm-6--6pm-6--5-10-9-10-5-10-9-7-7---------|(pm)



verse

E|----------------------------------------------------------|
C|----------------------------------------------------------|
G|----------------------------------------------------------|
C|-----8------8------8------8-------8------8------8---------|
G|-----10-----10-----10-----10------9------9------9---------|
C|-5pm-5pm5pm-5pm5pm-5pm5pm-5pm-5pm-5pm5pm-5pm5pm-5pm-------|


E|-----------------------------------------------------------|
C|-----------------------------------------------------------|
G|-----------------------------------------------------------|
C|-----8------8------8------8-------8------8------8------8---|
G|-----9------9------9------9-------9------9------9------9---|
C|-6pm-6pm6pm-6pm6pm-6pm6pm-6pm-5pm-5pm5pm-5pm5pm-5pm5pm-7pm-|


E|-----------------------------------------------------------|
C|-----------------------------------------------------------|
G|-----------------------------------------------------------|
C|-----5------5------5------5-------5------5------5------5---|
G|-----7------7------7------7-------7------7------7------7---|
C|-3pm-3pm3pm-3pm3pm-3pm3pm-3pm-3pm-3pm3pm-3pm3pm-3pm3pm-5pm-|


E|-----------------------------------------------------------|
C|-----------------------------------------------------------|
G|-----------------------------------------------------------|
C|-----5------5------5------5-------5------5------5------5---|
G|-----7------7------7------7-------7------7------7------7---|
C|-3pm-3pm3pm-3pm3pm-3pm3pm-3pm-3pm-3pm3pm-3pm3pm-3pm3pm-5---|pm(pm)



chorus

E|----------------------------------------------------------|
C|----------------------------------------------------------|
G|----------------------------------------------------------|
C|----------------------------------------------------------|
G|----------------------------------------------------------|
C|-3-5-9-7-9-10-3-5-7-10-5-9-3-5-9-7-9-5-9-10---------------| fast picking

post chorus

E|----------------------------------------------------------|
C|----------------------------------------------------------|
G|----------------------------------------------------------|
C|----------------------------------------------------------|
G|------1-0--------1-1--------------------------------------|
C|-0-5-3-----0-5-3------------------------------------------| fast picking


verse

chorus



solo/bridge

E|----------------------------------------------------------|
C|-------------17---------------16-15-16--------------------|
G|---16-14--16------16-14----16-----------------------------|
C|-17-----17------17-------17-------------------------------|
G|----------------------------------------------------------|
C|----------------------------------------------------------|

E|----------------------------------------------------------|
C|-------------17---------------17-17-19-19-21-21-----------|
G|---16-14--16------16-14----16-----------------------------|
C|-17-----17------17-------17-------------------------------|
G|----------------------------------------------------------|
C|----------------------------------------------------------|



post chorus
Tap to rate this tab
# A B C D E F G H I J K L M N O P Q R S T U V W X Y Z