Song name
# A B C D E F G H I J K L M N O P Q R S T U V W X Y Z

Devin Townsend Project - Deadhead tab

----------------------------------------------------------------|
----------------------------------------------------------------|
--------8-----7-------5---------------5-----5/7v---*7\0---------|
----7-----7-----7---7---7---7-----5-----5-----------------------|
--0---0-----0-----0-------0-----0---0-----0---------------------|
----------------------------------------------------------------|


----------------------------------------------------------------|
----------------------------------------------------------------|
--------8-----7-------5---------------7---------------5---------|
----7-----7-----7---7---7---7-----5-----5---5----2--------------|
--0---0-----0-----0-------0-----0---0-----0----0---0------------|
----------------------------------------------------------------|

----------------------------------------------------------------|
----------------------------------------------------------------|
--------8-----7-------5---------------5-----5/7v---7br----------|
----7-----7-----7---7---7---7-----5-----5-----------------------|
--0---0-----0-----0-------0-----0---0-----0---------------------|
----------------------------------------------------------------|

Couldn't figure out the last one where it descends and then opens into the main riff , 
i'm not really used to Open C , i just accidentally came across this really. Good luck 
for anyone trying to figure out the rest , sorry for not knowing any more of it. GOOD LUCK
Tap to rate this tab
# A B C D E F G H I J K L M N O P Q R S T U V W X Y Z