Song name
# A B C D E F G H I J K L M N O P Q R S T U V W X Y Z

Devin Townsend Project - Kawaii chords

Highlighted       Show chord diagrams
                             The Devin Townsend Project - Kawaii



Tuning:
A               F#m  
Freedom, you and me
E
We lost our world…
F#m(*)
she lost them.
A                F#m 
Freedom, you and me…
D5(*)  F#m
Kawaii…
D5(*)  E
Kawaii...
D5/D75            B5
Arrival, new arrival
G5(*)
Kawaii…
Kawaii.

Repeat

     D5   D75   B5b  G5  F#m
e|----------------------------------|
B|----------------------------------|
G|---7-----6-----4------------------|
D|---7-----7-----4----5----4--------|
A|---5-----5-----2----5----4--------|
E|--------------------3----2--------|


F#m(*)
e|------------------------|
B|------------------------|
G|------------------------|
D|-----4------------------|
A|-----2------------------|
E|-----2p00---------------|


D5(*)
e|-----------------------------|
B|-----------------------------|
G|--7777777 7-7----------------|
D|--7777777 7-7----------------|
A|--5555h77 -------------------|
E|-----------------------------|

G5(*)
e|---------------------------|
B|---------7*----------------|
G|-----7---7*----------------|
D|-----7---------------------|
A|---7-5---------------------|
E|3/5------------------------|
Tap to rate this tab
 
# A B C D E F G H I J K L M N O P Q R S T U V W X Y Z