Song name
# A B C D E F G H I J K L M N O P Q R S T U V W X Y Z

Devin Townsend - Life tab

This is one of the best songs ever written, so i hope this does it justice.

Now i'm tabbing this out as how to play it on one guitar, so there'll be the strumming
the lead part, you'll have to play with it because it'll look confusing, but trust me
 I'll tab just the lead out too.  The solo would be almost impossible to tab out while 
so i didn't do that. Sorry guys.

Capo 4

The chords used are

e--0--0--0--|
B--1--1--1--|
G--2--0--0--|
D--3--2--2--|
A--3--3--0--|
E--0--3--0--|

and then it's just a matter of repeating those over and over in different patterns

So the actual tab of just the lead is

e--------0--0----------------0-0---3--0---0-0--0-----------------------|
B------1------3p1----------1-----3---------------3p1---------1---------|
G--0h2-------------0---0h2----------------------------0--0h2---2--0----|
D--------------------------------------------------------------------3-|
A----------------------------------------------------------------------|
E----------------------------------------------------------------------|

so here's the whole strumming part with the tab in it

e--------0---0-0-0--0--------0---0-3-0--------0---0-0-0--0--------0-0-0-|
B------1-1---1-3-1--1------1-1---3-1-1------1-1---1-3-1--1------1-1-1-1-|
G--0h2---2---2-2-2--0--0h2---2---2-2-0--0h2---2---2-2-2--0--0h2---2-0-0-|
D--------3----------2--------3-------2--------3----------2--------3-3-3-|
A--------3----------3--------3-------0--------3----------3--------3-3-3-|
E--------0----------3--------0-------0--------0----------3--------0-0-0-|

for those of you who just want to strum and not play the lead part, the chords are right
just take out the lead.  Aka, every one that goes straight down on every string is the
you want.  Thanks guys! If you have any questions my name is jacob and just leave a commment.
Tap to rate this tab
# A B C D E F G H I J K L M N O P Q R S T U V W X Y Z