Song name
# A B C D E F G H I J K L M N O P Q R S T U V W X Y Z

Devin Townsend - Ih-ah Acoustic tab

-------------------------------------------------------------------------------
                                   Ih-Ah - Devin Townsend Project
-------------------------------------------------------------------------------


Tuning: Open C (CGCGCE)
E-mail: Drunkinmonkey44@gmail.com

Wanna Give Credit to the Hevy Devy Forums user Eteled, and Snout for finding and 
Working on the tabs!



[melodic picky bit]
E||-----------------|------------------|-----------------|-----------------||
C||---0-4p0---0-4p0-|---0-4p0---0-4p0--|---0-4p0---0-4p0-|---0-2p0---0-2p0-||
G||-2-------2-------|------------------|-----------------|-0-------0-------||
C||-----------------|-5-------5--------|-4-------4-------|-----------------||
G||-----------------|------------------|-----------------|-----------------||
C||-a-c-e-c-a-c-e-c-|-f-c-e-c--f-c-e-c-|-e-c-e-c-e-c-e-c-|-g-c-d-c-g-c-d-c-||            


[strummy bits]
E||------------------------||--------------------------||
C||------------------------||--------------------------||
G||-5-----0--0-------------||-5-----0--0-(0)-----------||
C||-4--5--7--2-------------||-4--5--7--2--3------------||
G||-2--5--5--0-------------||-2--5--5--0--1------------||
C||----5-------------------||----5---------------------||
    1  2  3  4  5  6  7  8     1  2  3  4  5  6  7  8 
                               Am F5 C5 G5 G#5 



Bridge
    Fsus2                               Am                Asus2   
E||-----------------|-----------------|-----------------|-----------------||
C||-----------------|-----------------|-----------------|-----------------||
G||-----------------|-----------------|-5-5-5-5-5-5-5-5-|-4-4-4-4-4-4-4-4-||
C||-7-7-7-7-7-7-7-7-|-7-7-7-7-7-7-7-7-|-4-4-4-4-4-4-4-4-|-4-4-4-4-4-4-4-4-||
G||-5-5-5-5-5-5-5-5-|-5-5-5-5-5-5-5-5-|-2-2-2-2-2-2-2-2-|-2-2-2-2-2-2-2-2-||
C||-5-5-5-5-5-5-5-5-|-5-5-5-5-5-5-5-5-|-----------------|-----------------|| X3
      * *   * *   *     * *   * *   *     * *   * *   *     * *   * *   *

    Fsus2                               Dmaj
E||-----------------|-----------------|-----------------|-----------------||
C||-----------------|-----------------|-----------------|-----------------||
G||-----------------|-----------------|-----------------|-----------------||
C||-7-7-7-7-7-7-7-7-|-7-7-7-7-7-7-7-7-|-6-6-6-6-6-6-6-6-|-6-6-6-6-6-6-6-6-||
G||-5-5-5-5-5-5-5-5-|-5-5-5-5-5-5-5-5-|-2-2-2-2-2-2-2-2-|-2-2-2-2-2-2-2-2-||
C||-5-5-5-5-5-5-5-5-|-5-5-5-5-5-5-5-5-|-2-2-2-2-2-2-2-2-|-2-2-2-2-2-2-2-2-|| X1
      * *   * *   *     * *   * *   *     * *   * *   *     * *   * *   *

************************************

| /   slide up
| \   slide down
| h   hammer-on
| p   pull-off
| ~   vibrato
| +   harmonic
| x   Mute note
| b   Bend
| pb  Pre-bend
| br  Bend release
| pbr Pre-bend release
| brb Bend release bend

************************************
Tap to rate this tab
# A B C D E F G H I J K L M N O P Q R S T U V W X Y Z