Song name
# A B C D E F G H I J K L M N O P Q R S T U V W X Y Z

Devious Soybeanz - The Destroyer tab

Devious Soybeanz
The Destroyer
http://www.devioussoybeanz.co.cc

e---------------------------------------------------------------------------|
B---------------------------------------------------------------------------|
G---------------------------------------------------------------------------|
D---------------------------------------------------------------------------|
A9-9-11-9-9-12-9-9-11-9-9-12-9-9-11-9-7-7-9-7-7-10-7-7-9-7-7-10-7-7-9-7-5-5-|
E---------------------------------------------------------------------------|

e----------------------------------------------------------------------------|
B----------------------------------------------------------------------------|
G----------------------------------------------------------------------------|
D----------------------------------------------------------------------------|
A7-5-5-8-5-5-7-5-5-8-5-5-7-5-3-3-5-3-3-6-3-3-5-3-3-6-3-3-5-3-7-7-10-7-7-11-7-|
E----------------------------------------------------------------------------|

e----------------------------------------------------------------------------|
B----------------------------------------------------------------------------|
G----------------------------------------------------------------------------|
D----------------------------------------------------------------------------|
A-7-10-7-7-11-7-7-10-7-5-5-7-5-5-8-5-5-7-5-5-8-5-5-7-5-3-3-5-3-3-6-3-3-5-3-3-|
E----------------------------------------------------------------------------|

e---------------------------------------------------------------------------|
B---------------------------------------------------------------------------|
G---------------------------------------------------------------------------|
D---------------------------------------------------------------------------|
A-6-3-3-5-3-1-1-3-1-1-4-1-1-3-1-1-4-1-1-3-1---------------------------------|
E---------------------------------------------------------------------------|

repeat x2


e---------------------------------------------------------------------------|
B---------------------------------------------------------------------------|
G---------------------------------------------------------------------------|
D-7-7---5-7-7-7-7-7---------------------------------------------------------|
A-5-5---3-5-5-5-5-5-5-5---5-7-7-7-7-7---------------------------------------|
E-------------------3-3---3-5-5-5-5-5---------------------------------------|

repeat x2

repeat intro x2
Tap to rate this tab
# A B C D E F G H I J K L M N O P Q R S T U V W X Y Z