Song name
# A B C D E F G H I J K L M N O P Q R S T U V W X Y Z

Devo - Auto Modown tab

-----------------------------------------------------------------
AUTO MODOWN - Devo
-----------------------------------------------------------------
Tabbed by: Maxwell1981
Email: maxwellmajor1981@yahoo.com
Tuning: Standard (E A D G B e)
NOTE: These tabs are purely ear-transcribed, so it may be inaccurate. If you'd like to 
improve on it, please tell me.
---
Intro/verse*:
e|-----10/12-12-|
B|---12---------|
G|--------------|
D|22------------|
A|22------------|
E|00------------|
Do that three times, and then:
e|------------|
B|------------|
G|------------|
D|------------|
A|----5-------|
E|5h7---7p5/3-|
“An acidhead goon in a '55 Dodge...”
e|----------------5b-|
B|-------------------|
G|-------------------|
D|55-5-55-5-55-5-----|
A|55-5-55-5-55-5-----|
E|33-3-33-3-33-3-----|
Play that twice, then go back to the first two riffs.
---
As always, listening to the song to get the right idea is key.
---
*-Throughout the song, Bob1 changed the last few notes in the first riff. You'll have to 
decipher the twists and turns on your own.
---
Key:
| /  slide up
| \  slide down
| h  hammer-on
| p  pull-off
| ~  vibrato
| +  harmonic
| x  Mute note
Tap to rate this tab
# A B C D E F G H I J K L M N O P Q R S T U V W X Y Z