Song name
# A B C D E F G H I J K L M N O P Q R S T U V W X Y Z

Devo - Too Much Paranoia tab

-----------------------------------------------------------------
TOO MUCH PARANOIAS - Devo
-----------------------------------------------------------------
Tabbed by: Maxwell1981
Email: maxwellmajor1981@yahoo.com
Tuning: Standard (E A D G B e)
---
This is a very easy song to play. It's mainly this riff being played over and over:
e|---------------|
B|--3-2p0---3-2--|
G|--3-2p0---3-2--|
D|2-------2------|
A|---------------|
E|---------------|

The riff is altered slightly at the end of the chorus:
e|----------3-2----|
B|--3-2p0---3-2----|
G|--3-2p0----------|
D|2-------2-----2--|
A|--------------2--|
E|--------------0--|

Then there's the mutated solo. If you want to play it as well, invest in a ring 
modulator. All Bob1 and Bob2 do here is hit a low-E power chord after Mark finishes a certain part.

After the solo is over the lead guitar continues to play this:
e|-----------------------------|
B|--3-2p0---3-2----3-2p0---3-2-|
G|--3-2p0---3-2----3-2p0---3-2-|
D|2-------2------2-------2-----|
A|-----------------------------|
E|-----------------------------|

While the rhythm guitar does this twice:
e|-----------------------------|
B|-----------------------------|
G|-----------------------------|
D|2--------------2-------------|
A|2--------------2-------------|
E|0--------------0-------------|
Then reverts to the main riff.

| /  slide up
| \  slide down
| h  hammer-on
| p  pull-off
| ~  vibrato
| +  harmonic
| x  Mute note
Tap to rate this tab
 
# A B C D E F G H I J K L M N O P Q R S T U V W X Y Z