Song name
# A B C D E F G H I J K L M N O P Q R S T U V W X Y Z

Devo - Pink Rattle tab

----------------------------------------------------------------- 
PINK RATTLE--Devo
----------------------------------------------------------------- 
Tabbed by: Maxwell
Email: g.spudboy@gmail.com
Tuning: Standard
---

For the intro, keep your fingers in an E major position.
e|--0----------0--------0-------0------|0---|
B|---0----------0--------0-------0-----|0---|
G|----1-0-1------1-0-1----1-0-1---1-0-1|1---|let fade…
D|2----------2--------2--------2-------|2---|
A|2----------2--------2--------2-------|----|
E|0----------0--------0--------0-------|----|
Play that twice.

Phrase 1, guitar 1:
e|------------------------|
B|------------------------|
G|-2-0--2--0---2-0--2--0--|repeat as necessary.
D|----0---0-0-----0---0-0-|
A|------------------------|
E|3-----------3-----------|

Phrase 1, guitar 2:
e|------------------------|
B|------------------------|
G|12b---------12b---------|
D|------------------------|
A|------------------------|
E|------------------------|

Phrase 2 is played after the vocalist has sung four lines of lyrics.

Phrase 2, guitar 1:
e|----|---------|-----|---------|-----|-----|-------|-------------------|
B|----|---------|-----|---------|-----|-----|-------|-------------------|
G|----|-2--2--0-|-----|-2--2--0-|-----|-0--0|---0--0|-------------------|
D|----|---0-----|-----|---0-----|-----|---0-|-----0-|-------------------|
A|----|---------|-----|---------|-----|-----|-------|-------------------|
E|0-1-|3--------|3-1--|3--------|3-1--|3----|1-3----|1-3-1-3-1-33333333-|

Phrase 2, guitar 2:
e|----|---------|-----|---------|-----|-----|---------|------------------|
B|----|---------|-----|---------|-----|-----|---------|------------------|
G|----|12-------|12-10|12-------|12-10|12---|10-12----|10-12-10-12-10-12-|
D|----|---------|-----|---------|-----|-----|---------|------------------|
A|----|---------|-----|---------|-----|-----|---------|------------------|
E|----|---------|-----|---------|-----|-----|---------|------------------|

Both guitars go to phrase 1, before moving to the bridge.

While guitar 1 goes back to the intro riff, guitar 2 plays this:
e|----5-----7-----5-----7-----5-----7-----5----5-|
B|5-7---5-7---5-7---5-7---5-7---5-7---5-7---5-7--|
G|-----------------------------------------------|
D|-----------------------------------------------|
A|-----------------------------------------------|
E|-----------------------------------------------|

---

Here’s the song for all of y’all:

http://www.youtube.com/watch?v=ENCXqSFsXWo
Tap to rate this tab
# A B C D E F G H I J K L M N O P Q R S T U V W X Y Z