Song name
# A B C D E F G H I J K L M N O P Q R S T U V W X Y Z

Devo - Whip It tab

One of the best Devo songs!!

Intro
E|-----\------------|
B|-----\------------|
G|-----\------------|
D|-----\------------|4X
A|-----\---------5--|
E|-12/-\-0-0-5-7----|

Verse 1
E|------------------------|
B|------------------------|
G|------------------------|
D|------------------------|4X
A|----------5-----0-0-----|
E|--0-0-5-7-----------3-2-|

Verse 2
E|--------------------------------|
B|--------------------------------|
G|--------------------------------|
D|--------------------------------|4X
A|----------5--7/9-9-7-5--0-0-----|
E|--0-0-5-7-------------------3-2-|

Chorus
E|-----------------------|
B|-----------------------|
G|-----------------------|
D|-----------------------|5X
A|--12-10----------------|
E|--------12----12-10-0--|

Verse 2
E|--------------------------------|
B|--------------------------------|
G|--------------------------------|
D|--------------------------------|4X
A|----------5--7/9-9-7-5--0-0-----|
E|--0-0-5-7-------------------3-2-|

Bridge
E|----------------------------------------|
B|----------------------------------------|
G|---------------55-------------------77--|
D|-------22--55--55-----------22--55--77--|2X
A|-------22--55--33-----------22--55--55--|
E|-12/---00--33---------12/---00--33------|

Verse 1 (a little faster)
E|------------------------|
B|------------------------|
G|------------------------|
D|------------------------|8X
A|----------5-----0-0-----|
E|--0-0-5-7-----------3-2-|

Verse 1
E|------------------------|
B|------------------------|
G|------------------------|
D|------------------------|4X
A|----------5-----0-0-----|
E|--0-0-5-7-----------3-2-|

Verse 2
E|--------------------------------|
B|--------------------------------|
G|--------------------------------|
D|--------------------------------|4X
A|----------5--7/9-9-7-5--0-0-----|
E|--0-0-5-7-------------------3-2-|

Chorus
E|-----------------------|
B|-----------------------|
G|-----------------------|
D|-----------------------|9X
A|--12-10----------------|
E|--------12----12-10-0--|

Verse 2
E|--------------------------------|
B|--------------------------------|
G|--------------------------------|
D|--------------------------------|1X
A|----------5--7/9-9-7-5--0-0-----|
E|--0-0-5-7-------------------3-2-|

End
E|-------------|
B|-------------|
G|-------------|
D|-------------|
A|----------5--|
E|--0-0-5-7----|


Tab By Paulo Marasca Filho
Tap to rate this tab
# A B C D E F G H I J K L M N O P Q R S T U V W X Y Z