Song name
# A B C D E F G H I J K L M N O P Q R S T U V W X Y Z

Devo - Pink Pussycat tab

-------------------------------------------------------------------------------
			 Pink Pussycat - DEVO
-------------------------------------------------------------------------------
Tabbed by:Howard Moon
Email:jshowers@gmail.com

Tuning: stanadard

Repeat phrase A 16x
e|------------------------||--------------------------------------------------|
B|------------------------||--------------------------------------------------|
G|------------------------||--------------------------------------------------|
D|-2------------0---------||--------------------------------------------------|
A|-0--------0-3---3p0-----||--------------------------------------------------|
E|----3p0-3-----------3p0-||--------------------------------------------------|

then phrase B              A   G    E   D    C    Back to top
e|------------------------|--------|--------|----|--------------------------------|
B|------------------------|--------|--------|----|--------------------------------|
G|------------------------|2-------|----7---|5---|--------------------------------|
D|------------1-3p1-------|2---5---|2---7---|5---|--------------------------------|
A|-3--1---1-3-------3-1---|0---5---|2---5---|3---|--------------------------------|
E|------3---------------3-|----3---|0-------|----|--------------------------------|

During verse, play phrase A 4 times, then phrase B 1 time

 /  slide up
 \  slide down
 h  hammer-on
 p  pull-off
 ~  vibrato
 +  harmonic
 x  Mute note
Tap to rate this tab
# A B C D E F G H I J K L M N O P Q R S T U V W X Y Z