Song name
# A B C D E F G H I J K L M N O P Q R S T U V W X Y Z

Devo - Shrivel Up tab

Song: Shrivel Up
Band: Devo
Album: Q: Are We Not Men? A: We Are Devo!


This song is only made up of a couple of riffs.

Riff 1:
E||-----------------------|-------------------|--------------------------|
B||--11-------7-----------|-------------------|--------7-----------9-----|
G||---9-------5-----------|-------------------|--7--9-----9--7--9--------|
D||-----------------------|-------------------|--------------------------|
A||-----------------------|-------------------|--------------------------|
E||-----------------------|-------------------|--------------------------|
        
--------------------------||
--------7-----------9-----||
--7--9-----9--7--9--------||
--------------------------||
--------------------------||
--------------------------||


Riff 2:
E||--5----------------8----|
B||--5----10----9-----8----|
G||--6----10----9-----9----|
D||--7----10----9----10----|
A||--7-----8----7----10----|
E||--5----------------8----|


Riff 3 (variation of Riff 1)
E||-----------------------|--------2--------2-----------|
B||--11-------7-----------|------------------------(2)--|
G||---9-------5-----------|--4b-------4b-------4b-------|
D||-----------------------|-----------------------------|
A||-----------------------|-----------------------------|
E||-----------------------|-----------------------------|
        
--------------------------|--------------------------||
--------7-----------9-----|--------7-----------9-----||
--7--9-----9--7--9--------|--7--9-----9--7--9--------||
--------------------------|--------------------------||
--------------------------|--------------------------||
--------------------------|--------------------------||
Tap to rate this tab
# A B C D E F G H I J K L M N O P Q R S T U V W X Y Z