Song name
# A B C D E F G H I J K L M N O P Q R S T U V W X Y Z

Devo - Soo Bawls tab

-------------------------------------------------------------------------------
			     Soo Bawls - DEVO
-------------------------------------------------------------------------------
Tabbed by: Howard Moon
Email:showersjulie@hotmail.com

Tuning:standard

Intro (7/8 time)
e|-------|-------||---------------------------------------------------------|
B|-------|-------||---------------------------------------------------------|
G|-------|-------||---------------------------------------------------------|
D|-2--4--|-6--8--||4 times--------------------------------------------------|
A|--2--4-|--6--8-||---------------------------------------------------------|
E|0--0--2|4--4--6||---------------------------------------------------------|

Verse               Chorus
e|-----------------|----------------------xxxxx-xxxxx-xxxxxxxxxxxxx---------|
B|-----------------|----------------------xxxxx-xxxxx-xxxxxxxxxxxxx---------|
G|-----------------|--7--7-----7--7-------xxxxx-xxxxx-xxxxxxxxxxxxx---------|
D|-7---------------|--7--7-----7--7-------xxxxx-xxxxx-xxxxxxxxxxxxx---2x----|
A|-7---------------|--5--5-----5--5-------xxxxx-xxxxx-xxxxxxxxxxxxx---------|
E|-5---------------|----------------------xxxxx-xxxxx-xxxxxxxxxxxxx---------|
                     Soo Bawls Soo Bawls

e|--------------------------------------------------------------------------|
B|--------------------------------------------------------------------------|
G|-7--7-----7--7--------9-----------9---------------------------------------|
D|-7--7-----7--7--------9---7-------9---7----- Back to top------------------|
A|-5--5-----5--5--------7---7-------7---7-----------------------------------|
E|--------------------------5-----------5-----------------------------------|
  Soo Bawls Soo Bawls   Soo Bawls   Soo Bawls
Tap to rate this tab
# A B C D E F G H I J K L M N O P Q R S T U V W X Y Z