Song name
# A B C D E F G H I J K L M N O P Q R S T U V W X Y Z

Devotchka - How It Ends tab

Different Parts Played Through The Song. Just Plug In And Play Where Needed

Intro Part

e|------------|    e|------------|
B|-8--8--8--8-|    B|-8--8--8--8-|
G|-9--9--9--9-| x4 G|-9--9--9--9-| x4
D|-10-10-10-10|    D|-9--9--9--9-|
A|------------|    A|------------|
E|------------|    E|------------|

Piano Melody

e|-15-------12-------13----|
B|----12-13----12-13----12-|
G|-------------------------| x2
D|-------------------------|
A|-------------------------|
E|-------------------------|

e|-13----------------12----|
B|----12-13-15-12-13----12-|
G|-------------------------| x2
D|-------------------------|
A|-------------------------|
E|-------------------------|

Violin Melody

e|----------12----------12-12-12-12-12-13-13-15-15-|
B|-13-13-15----13-13-15----------------------------|
G|-------------------------------------------------|
D|-------------------------------------------------|
A|-------------------------------------------------|
E|-------------------------------------------------|
Tap to rate this tab
# A B C D E F G H I J K L M N O P Q R S T U V W X Y Z