Song name
# A B C D E F G H I J K L M N O P Q R S T U V W X Y Z

Devotchka - How It Ends tab

This is just the guitar part of it, not the piano and accordian parts.

You may know this song from Little Miss Sunshine. A great song and movie.


Begining Riff:
e----------------------------------------------------------------------------|
B----------------------------------------------------------------------------|
G----------------------------------------------------------------------------|
D-10-10-10-10-10-10-10-10-10-10-10-10-10-10-9-9-9-9-9-9-9-9-9-9-9-9-9-9-9-9--|
A----------------------------------------------------------------------------|
E----------------------------------------------------------------------------|


Secondary Riff:
e---------------------------------------------------------------------------|
B-------------------------------8-8--------------------------------8-8------|
G------7-9-----7-9-9-9-9-9-10-10---------7-9------7-9-9-9-9-9-10-10---------|
D-10-10---10-10---------------------10-10----10-10--------------------------|
A---------------------------------------------------------------------------|
E---------------------------------------------------------------------------|


That's about it. A very good song. Have a good time with this song.

peace,
Ace
Tap to rate this tab
 
# A B C D E F G H I J K L M N O P Q R S T U V W X Y Z