Guitaretab - guitar tabs
Song name
# A B C D E F G H I J K L M N O P Q R S T U V W X Y Z

Devotchka - Somethin Stupid tab

The Chord Progression of the song is 40 bars and then repeats.

The Chords To Know for the song are:

    G  D  C
  e-3--2--0---|
  B-3--3--1---|
  G-0--2--0---|
  D-0--0--2---|
  A-2--x--3---|
  E-3--x--x---|

The Progression is as Follows

| G | G | D | D |
| D | D | G | G |
| G | G | C | C |
| D | D | G | G |
| G | G | C | C |
| C | C | D | D |
| G | G | D | D |
| D | D | G | G |
| G | G | C | C |
| D | D | G | G |

The Violin Solo at the beginning of the second time through is:

e-------------------------------------------|
B--------------------------8-8---------8----|
G--7--7-7-9--9-9-11--11-11-----11-7-9----11-|
D-------------------------------------------|
A-------------------------------------------|
E-------------------------------------------|
[ Tab from: http://www.guitaretab.com/d/devotchka/79376.html ]
e-------------------------------------------|
B--------------------------8-8---------8----|
G--7--7-7-9--9-9-11--11-11-----11-7-9----7--|
D-------------------------------------------|
A-------------------------------------------|
E-------------------------------------------|

e-----------------------------10-8----8-------8-|
B--8--8-8-10--10-10-12--12-12------12---12-10---|
G-----------------------------------------------|
D-----------------------------------------------|
A-----------------------------------------------|
E-----------------------------------------------|

e----------------------------------------|
B--12-12-12-8-10---12-12--8-10--12-10-8--|
G----------------------------------------|
D----------------------------------------|
A----------------------------------------|
E----------------------------------------|

Hopefully that is all correct.  If you have any problems w/ it or you would like 
else out of the song let me know and I'll try and post them.

This is my first tab on here.  Let me know what you think
Related for Somethin Stupid tab
Advertisement will be closed in 10 seconds