Song name
# A B C D E F G H I J K L M N O P Q R S T U V W X Y Z

Devotchka - Enemy Guns tab

Help us improve GuitareTab! Take a short survey!
-------------------------------------------------------------------------------
			     THE ENEMY GUNS - DeVotchKa
-------------------------------------------------------------------------------
Tabbed by: anarchystar
Email: anarchystar1@gmail.com

This is based on how I saw Nick Urata(singer/guitarist) play it live.


It's only three chords...the rhythm is semi-galloping, and very hard to put into tab.

Tuning: Standard(EADGBe)

e|---4---4-4-4------4---4-4-4----4---4-4-4---5-5-5-4|
B|---4---4-4-4------4---4-4-4----4---4-4-4---5-5-5-4|
G|---4---4-4-4------4---4-4-4----4---4-4-4---5-5-5-4|
D|---4---4-4-4------4---4-4-4----4---4-4-4---5-5-5-4|
A|---2---4-4-4------2---4-4-4----2---4-4-4---5-5-5-4|
E|---2---2p0h2------2---2p0h2----2---2p0h2---3-3-3-2|


Effects wise, maybe some slight distortion and very minute reverb.

Enjoy.


| /  slide up
| \  slide down
| h  hammer-on
| p  pull-off
| ~  vibrato
| +  harmonic
| x  Mute note
===============================================================================
Related for Enemy Guns tab