Song name
# A B C D E F G H I J K L M N O P Q R S T U V W X Y Z

Devotchkas - Oi Toy tab

Oi! Toy - Devotchkas - Annihilation

Intro
e|-------------------------------------------------------------------------------|-----|
b|-------------------------------------------------------------------------------|-----|
g|-------------------------------------------------------------------------------|-----|
d|-----------------------5--------------------------10-------------------12------|--7--|
a|-----7--------3-----3-----3-----5--------7-----8------8-----10-----10------10--|--7--|
E|--5-----5--1-----1-----------3-----3--5-----5------------8------8--------------|--5--|

Verse
e|-----------------------------|
b|-----------------------------|
g|--------5--------10------12--|
d|--7--3--5--5--7--10--10--12--|
a|--7--3--3--5--7---8--10--10--|
E|--5--1-----3--5-------8------|

Chorus
e|--------|
b|--------|
g|--------|
d|--7--5--|
a|--7--5--|
E|--5--3--|
Tap to rate this tab
# A B C D E F G H I J K L M N O P Q R S T U V W X Y Z