Song name
# A B C D E F G H I J K L M N O P Q R S T U V W X Y Z

Devotchkas - Hip Hop Kids tab

Very easy song! Listen to the song for timing. Any street punk or Oi fans feel
free to drop me a line: broken_youth@hotmail.com

Intro/ Chorus:

E--------------                 --------------|
B--------------                 --------------|
G-------7-7-7--                 --------------|
D-------5-5-5--                 -------2-2-2--|
A--7-7---------                 --7-7--0-0-0--|
E--5-5---------  (3 times) then --5-5---------|

Verse:

E-------------------------|
B-------------------------|
G-------------------------|
D---------7-7-7--9--7-----|
A--7-7-7--5-5-5--7--5--7--|
E--5-5-5---------------5--| repeat
Tap to rate this tab
 
# A B C D E F G H I J K L M N O P Q R S T U V W X Y Z