Song name
# A B C D E F G H I J K L M N O P Q R S T U V W X Y Z

Devotchkas - Mr School Physcology tab

song - mr school physcology
band - The Devotchkas
album - Annihilation

Tabbed by LastCaress88

Intro:

e-----------------------------------l
B-----------------------------------l
G------77777--11-11-11-11-11-99999--l
D-7777-77777--11-11-11-11-11-99999--l
A-7777-55555---9--9--9--9--9-77777--l
E-5555------------------------------l

Verse:

e--------------------------l
B--------------------------l
G-------------77777-99999--l
D-77777-44444-77777-99999--l
A-77777-44444-55555-77777--l
E-55555-22222--------------l

Chorus:

e-----------------------------------l
B-----------------------------------l
G------77777--11-11-11-11-11-99999--l
D-7777-77777--11-11-11-11-11-99999--l
A-7777-55555---9--9--9--9--9-77777--l
E-5555------------------------------l
Tap to rate this tab
# A B C D E F G H I J K L M N O P Q R S T U V W X Y Z