Song name
# A B C D E F G H I J K L M N O P Q R S T U V W X Y Z

Devotchkas - Shit For Dreams tab

Shit For Dreams - Devotchkas

Verse
e|---------------|
b|---------------|
g|--7------------|
d|--7--7--9--10--|
a|--5--7--9--10--|
E|-----5--7---8--|

Chorus
e|---------------|
b|---------------|
g|-----7---------|
d|--5--7--7--10--|
a|--5--5--7--10--|
E|--3-----5---8--|

End On
e|-----|
b|-----|
g|--7--|
d|--7--|
a|--5--|
E|-----|
Tap to rate this tab
 
# A B C D E F G H I J K L M N O P Q R S T U V W X Y Z