Song name
# A B C D E F G H I J K L M N O P Q R S T U V W X Y Z

Devotchkas - Wicked Heart tab

Wicked Heart - Devotchkas

Intro
e|--------------------------|
b|--------------------------|
g|--------------------------|
d|--------------------------|
a|-----5--4--0--------5--4--|
E|--7-----------3--5--------|

Verse
e|--------------------------|
b|--------------------------|
g|-----7--6-----------7--6--|
d|--9--7--6--7--5--7--7--4--|
a|--9--5--4--7--5--7--5--4--|
E|--7--------5--3--5--------|

Chorus
e|-----------------|
b|-----------------|
g|-----7-----7--6--|
d|--9--7--7--7--6--|
a|--9--5--7--5--4--|
E|--7-----5--------|

End On
e|-----|
b|-----|
g|-----|
d|--9--|
a|--9--|
E|--7--|
Tap to rate this tab
 
# A B C D E F G H I J K L M N O P Q R S T U V W X Y Z