Song name
# A B C D E F G H I J K L M N O P Q R S T U V W X Y Z

Devotchkas - Pseudo Personality tab

Pseudo Personality - Devotchkas - Live Fast Die Young

Intro/Solo
e|--12-12-12-12-12-15-12-------12-------------------15----12-|
b|-----------------------15-15----12-12-12-12-12-12----15----|
g|-----------------------------------------------------------|
d|-----------------------------------------------------------|
a|-----------------------------------------------------------|
E|-----------------------------------------------------------|

Verse
e|--------------|
b|--------------|
g|--------------|
d|--2--7--9--7--|
a|--2--7--9--7--|
E|--0--5--7--5--|

Chorus
e|-----------------|
b|-----------------|
g|-----------7-----|
d|--2--7--9--7--9--|
a|--2--7--9--5--9--|
E|--0--5--7-----7--|

Outro
e|--------------------|
b|--------------------|
g|-----7--------7-----|
d|--9--7--9--9--7--2--|
a|--9--5--9--9--5--2--|
E|--7-----7--7-----0--|
Tap to rate this tab
# A B C D E F G H I J K L M N O P Q R S T U V W X Y Z