Song name
# A B C D E F G H I J K L M N O P Q R S T U V W X Y Z

Devotchkas - One Sided Society tab

One-Sided Society - Devotchkas - Annihilation

Intro/Verse
e|------------------------|
b|------------------------|
g|--12--8------10---------|
d|--12--8--10--10--8--10--|
a|--10--6--10---8--8--10--|
E|----------8------6---8--|

Chorus
e|--------------------|
b|--------------------|
g|------8--10---------|
d|--10--8--10--8--10--|
a|--10--6---8--8--10--|
E|---8---------6---8--|
Tap to rate this tab
 
# A B C D E F G H I J K L M N O P Q R S T U V W X Y Z