Song name
# A B C D E F G H I J K L M N O P Q R S T U V W X Y Z

Devotchkas - Coppers In Force tab

Coppers In Force - Devotchkas - Annihilation

Intro/Verse
e|-----------|
b|-----------|
g|--5--3-----|
d|--5--3--3--|
a|--3--1--3--|
E|--------1--|

Chorus
e|-----------|
b|-----------|
g|-----3--5--|
d|--5--3--5--|
a|--5--1--3--|
E|--3--------|

e|--------------|
b|--------------|
g|-----3--5--3--|
d|--5--3--5--3--|
a|--5--1--3--1--|
E|--3-----------|
Tap to rate this tab
# A B C D E F G H I J K L M N O P Q R S T U V W X Y Z