Song name
# A B C D E F G H I J K L M N O P Q R S T U V W X Y Z

Devotchkas - Negative Reaction tab

Negative Reaction - Devotchkas - Live Fast Die Young

Intro/Verse
e|-------------------------------------|
b|-------------------------------------|
g|--7--9--7-------------7--5--7--9--7--|
d|--7--9--7--10--5--10--7--5--7--9--7--|
a|--5--7--5--10--5--10--5--3--5--7--5--|
E|------------8--3---8-----------------|

Chorus
e|--------------|--------|
b|--------------|--------|
g|--7-----------|--------|
d|--7--7--8--7--|--5--7--|
a|--5--7--8--7--|--5--7--|
E|-----5--6--5--|--3--5--|
Tap to rate this tab
 
# A B C D E F G H I J K L M N O P Q R S T U V W X Y Z