Song name
# A B C D E F G H I J K L M N O P Q R S T U V W X Y Z

Devotchkas - Pushed To The Limit tab

Help us improve GuitareTab! Take a short survey!
Pushed To The Limit - Devotchkas - Live Fast Die Young

Verse
e|---------------------|
b|---------------------|
g|--7--11--9-----------|
d|--7--11--9--7--5--4--|
a|--5---9--7--7--5--4--|
E|------------5--3--2--|

Chorus
e|-----------------|
b|-----------------|
g|-----9--7--5-----|
d|--5--9--7--5--5--|
a|--5--7--5--3--5--|
E|--3-----------3--|
Related for Pushed To The Limit tab