Song name
# A B C D E F G H I J K L M N O P Q R S T U V W X Y Z

Devotchkas - Travel In Packs tab

Travel In Packs - Devotchkas - Live Fast Die Young

Intro/Verse
e|--------------------|
b|--------------------|
g|--6-----------------|
d|--6--9--7--6--7--6--|
a|--4--9--7--6--7--6--|
E|-----7--5--4--5--4--|

Chorus
e|--------------|
b|--------------|
g|-----6--------|
d|--2--6--6--7--|
a|--2--4--6--7--|
E|--0-----4--5--|
Tap to rate this tab
# A B C D E F G H I J K L M N O P Q R S T U V W X Y Z