Song name
# A B C D E F G H I J K L M N O P Q R S T U V W X Y Z

Devotchkas - Transparent Creed tab

Transparent Creed - Devotchkas - Live Fast Die Young

Intro/Verse
e|-----------------|
b|-----------------|
g|-----5--7--4--5--|
d|--5--5--7--4--5--|
a|--5--3--5--2--3--|
E|--3--------------|

Chorus
e|-----------------|
b|-----------------|
g|-----5-----9--7--|
d|--5--5--5--9--7--|
a|--5--3--5--7--5--|
E|--3-----3--------|
Tap to rate this tab
 
# A B C D E F G H I J K L M N O P Q R S T U V W X Y Z