Song name
# A B C D E F G H I J K L M N O P Q R S T U V W X Y Z

Devotchkas - Her Love Is Innocence tab

Her Love Is Innocence - Devotchkas - Live Fast Die Young

Intro/Verse
e|----------------------------|
b|----------------------------|
g|--9---------12--14--12--11--|
d|--9--9--10--12--14--12--11--|
a|--7--9--10--10--12--10---9--|
E|-----7---8------------------|

Chorus
e|---------------|
b|---------------|
g|---------------|
d|--7--10--5--7--|
a|--7--10--5--7--|
E|--5---8--3--5--|

e|---------------------|
b|---------------------|
g|---------------------|
d|--7--10--5--7--5--4--|
a|--7--10--5--7--5--4--|
E|--5---8--3--5--3--2--|
Tap to rate this tab
# A B C D E F G H I J K L M N O P Q R S T U V W X Y Z