Song name
# A B C D E F G H I J K L M N O P Q R S T U V W X Y Z

Devotchkas - Like Animals tab

Like Animals - Devotchkas - Live Fast Die Young

Intro
e|--------------|
b|--------------|
g|--7--5--7--5--|
d|--7--5--7--5--|
a|--5--3--5--3--|
E|--------------|

Verse (spoken pm)
e|------------------------|
b|------------------------|
g|-----10--5--7--5--7--5--|
d|--7--10--5--7--5--7--5--|
a|--7---8--3--5--3--5--3--|
E|--5---------------------|

Chorus
e|---------------------------|
b|---------------------------|
g|-----7-----7-----7--10--5--|
d|--7--7--7--7--7--7--10--5--|
a|--7--5--7--5--7--5---8--3--|
E|--5-----5-----5------------|
Tap to rate this tab
# A B C D E F G H I J K L M N O P Q R S T U V W X Y Z