Song name
# A B C D E F G H I J K L M N O P Q R S T U V W X Y Z

Devotchkas - Poogly tab

Poogly - Devotchkas - Live Fast Die Young

e|---------------------|
b|---------------------|
g|--11--7-----9--------|
d|--11--7--9--9--7--9--|
a|---9--5--9--7--7--9--|
E|---------7-----5--7--|

e|-----------------|--------|
b|-----------------|--------|
g|-----8--9--------|--------|
d|--9--8--9--------|--7--9--|
a|--9--6--7--[x3]--|--7--9--|
E|--7--------------|--5--7--|

e|--------|
b|--------|
g|--------|
d|--7--9--|
a|--7--9--|
E|--5--7--|
Tap to rate this tab
 
# A B C D E F G H I J K L M N O P Q R S T U V W X Y Z