Guitaretab - guitar tabs
Song name
# A B C D E F G H I J K L M N O P Q R S T U V W X Y Z

Devotchkas - My Scars tab

My Scars - Devotchkas (The 99ís)

Intro
e|--------------------|
b|--------------------|
g|--------------------|
d|--4--7--------------|
a|--------5--7--4--5--|
E|--------------------|

Verse
e|---------------------|
b|---------------------|
g|--11------9----------|
d|--11--12--9--11--12--|
a|---9--12--7--11--12--|
E|------10------9--10--|
[ Tab from: http://www.guitaretab.com/d/devotchkas/73207.html ]
Chorus
e|--------------------------------------------------|
b|--------------------------------------------------|
g|--11--14--13------------------14--13--------------|
d|--11--14--13--14--11--14--12--14--13--11--14--13--|
a|---9--12--11--14--11--14--12--12--11--11--14--13--|
E|--------------12---9--12--10-----------9--12--11--|

Outro
e|-----9-----9-------------------7-----7---------------|-----|
b|--7-----7--------10-----10-----------------9--10--9--|--7--|
g|--------------7------7------9-----9-----6------------|-----|
d|-----------------------------------------------------|-----|
a|-----------------------------------------------------|-----|
E|-----------------------------------------------------|-----|
Related for My Scars tab