Guitaretab - guitar tabs
Song name
# A B C D E F G H I J K L M N O P Q R S T U V W X Y Z

Devotion - Girl Its You tab

#----------------------------------PLEASE NOTE---------------------------------#
#This file is the author's own work and represents their interpretation of the #
#song. You may only use this file for private study, scholarship, or research. #
#------------------------------------------------------------------------------##

Girl It's You - Devotion
       -transcribed by Rodney Hidalgo (ImageofDevotion.com)
=================================================

Intro...

put capo on first fret (top string E# ect...)

e---------0-------------------|---------0---1-0-------|
B-------3---------1-----1-----|-------3---3-----3-1-3-|
G-----0-4---4-----------------|-----0-4---------------|
D---2---------2-3---2-3---2-3-|---2---------0-----3---|
A-3---------------------------|-3---------------------|
E-----------------------------|-----------------------|

e---------0-------------------|---------0----1--3-|
B-------3---------1-----1-----|-------3------1--0-|
G-----0-4---4-----------------|-----0-4---4--2--0-|
D---2---------2-3---2-3---2-3-|---2----------3--0-|
A-3---------------------------|-3------------3--2-|
E-----------------------------|--------------1--3-|

Alternate version:

e---------0-------------------|---------0-------------|
B-------3---------------------|-------3---3-6-5-3---3-|
G-----0-4---4-----5-----5-----|-----0-4-----------5---|
D---2---------2-3---2-3---2-3-|---2---------0-----3---|
A-3---------------------------|-3---------------------|
E-----------------------------|-----------------------|

e---------0-------------------|---------0----1--3-|
B-------3---------------------|-------3------1--0-|
G-----0-4---4-----5-----5-----|-----0-4---4--2--0-|
D---2---------2-3---2-3---2-3-|---2----------3--0-|
A-3---------------------------|-3------------3--2-|
E-----------------------------|--------------1--3-|

Verse:
C  			    F			   Am
If you were right here with me I would want you to see
F				     G 		      Em  Dm
That without you girl there would be no one else in this world
C                           F                      Am
If you would only take my hand, and try to understand
F                                    G                Em  Gm  F
That you're the only one that i would want to be my girl

PreChorus:
Em					Dm
And all I do is think of you cause the feelings I have are so true
     Em/G		           Dm/F Em  G
Each day I wait when I can say that I love you

(Cause Girl It's)

Chorus:
C		   G		  Am	   G			   F
You that I've been wanting all my life and girl you know that it's right
	   	        Am		                         F
When I looked into your eyes I knew that I'd give my heart to you
	  C
Girl It's You

Interlude:

e---------------3-------------|
B-------3-----3-------3-----3-|
G-5---5-----5-------5-----5---|
D---5-----5-------5-----5-----|
A-3---------------------------|
E-----------------------------|
[ Tab from: http://www.guitaretab.com/d/devotion/38234.html ]
e---------------3-------------|
B-------3-----3-------3-----3-|
G-5---5-----5-------5-----5---|
D---5-----5-------5-----5-----|
A-3---------------------------|
E-----------------------------|

Verse:
C                                  F                                   Am
Oh Girl, I thought about you endlessly, thats the way it should always be,
           F                  G                     Em  Gm  F
Can't you understand, I wanna be your man for all time.

PreChorus:
Em                                    Dm
Forever girl, I'll be right here, my thoughts of you will never disappear,
         Em/G                            Dm/F  Em  G
You'll always stay, within my heart, for all eternity

(Cause Girl It's)

Chorus:
C		   G		  Am	   G			   F
You that I've been wanting all my life and girl you know that it's right
	   	        Am		                         F
When I looked into your eyes I knew that I'd give my heart to you
	  C
Girl It's You

Bridge: (Accapella)

As fast as it may seem I'm tired of hiding all my hopes and dreams

Girl there's no other way and wait for the day that I can feel your lips

(Girl It's)

Chorus: (key change)
D#		   A#		  Cm	     A#			   G#
You that I've been wanting all my life and girl you know that it's right
	   	        Cm		                         G#
When I looked into your eyes I knew that I'd give my heart to you
	  D#
Girl It's You

(last Girl it's you):
          G#  A#          D#
Girl It's You, Girl It's You

or (Alternative)

Chorus: (key change roll capo over to 4th fret)
C		   G		  Am	   G			   F
You that I've been wanting all my life and girl you know that it's right
	   	        Am		                         F
When I looked into your eyes I knew that I'd give my heart to you
	  C
Girl It's You

(last Girl it's you):
          F   G           C
Girl It's You, Girl It's You

Chord Chart:

Em/G
    1     2     3
e|-----|-----|-----|
B|-----|-----|-----|
G|-----|-----|-----|
D|-----|--O--|-----|
A|-----|--O--|-----|
E|-----|-----|--O--|

Dm/F
    1     2     3
e|--O--|-----|-----|
B|-----|-----|--O--|
G|-----|--O--|-----|
D|-----|-----|-----|
A|-----|-----|-----|
E|--O--|-----|-----|

D#
    3     4     5     6
e|--O--|-----|-----|-----|
B|--O--|--O--|-----|-----|
G|--O--|-----|-----|-----|
D|--O--|-----|--O--|-----|
A|--O--|-----|-----|--O--|
E|--O--|-----|-----|-----|

A#
    6     7     8            1     2     3
e|--O--|-----|-----|      |--O--|-----|-----|
B|--O--|-----|-----|      |--O--|-----|--O--|
G|--O--|--O--|-----|      |--O--|-----|--O--|
D|--O--|-----|--O--|  or  |--O--|-----|--O--|
A|--O--|-----|--O--|      |--O--|-----|-----|
E|--O--|-----|-----|      |--O--|-----|-----|

Cm
    3     4     5
e|--O--|-----|-----|
B|--O--|--0--|-----|
G|--O--|-----|--O--|
D|--O--|-----|--O--|
A|--O--|-----|-----|
E|--O--|-----|-----|

G#
    4     5     6
e|--O--|-----|-----|
B|--O--|-----|-----|
G|--O--|--O--|-----|
D|--O--|-----|--O--|
A|--O--|-----|--O--|
E|--O--|-----|-----|
Related for Girl Its You tab