Song name
# A B C D E F G H I J K L M N O P Q R S T U V W X Y Z

Devour The Day - Good Man Acoustic tab

-----------------------------------------------------------------------------
                     GOOD MAN [ACOUSTIC] – Devour the Day
-----------------------------------------------------------------------------

Tabbed by: Jonathan
E-mail: Johnomeza@gmail.com

This is my first tab that I have typed. I heard this and really liked it and I thought
maybe to try out trying to get the tabs. There are parts missing and I am just putting it
here for you try and I hope to see better tabs for this song. I hope you find this tab 
useful. Thank you.

Tuning: C# G# C# F# A# D#

Here is the link to the video: http://www.youtube.com/watch?v=GLYc_GgbSgE

Verse:

D#|------------------------------------------------------------------|
A#|------------------------------------------------------------------|
F#|------------------------------------------------------------------|
C#|------------------------------------------------------------------|
G#|-3-3-3-3-3------X--X--X-------------------------------------------|
C#|X----------0----X--X--X-------------------------------------------|

Description: While playing the verse, I mute the 1st string/C# with my finger over the
fourth fret. Listen to song for the rhythm and strumming, I can’t really explain that part.

Chorus:


D#|------------------------------------------------------------------|
A#|------------------------------------------------------------------|
F#|-7-------------7--------------------------------------------------|
C#|-7--3--10--0---7--3--10--X--X-------------------------------------|
G#|-5--3--10--0---5--3--10--X--X-------------------------------------|
C#|----3--10--0------3--10--X--X-------------------------------------|

D#|------------------------------------------------------------------|
A#|--------------6--8------------------------------------------------|
F#|-7------------5--7------------------------------------------------|
C#|-7--3--10--0--3—-5------------------------------------------------|
G#|-5--3--10--0--3—-5------------------------------------------------|
C#|----3--10--0------------------------------------------------------|

Description: I have just typed each note that is played, listen to the song for the way
it is played. But these are the chords that I heard.

Verse

Chorus

Bridge

D#|----------------------------------------------------------------|
A#|----------------------------------------------------------------|
F#|-3--7--5--4--3--7--5--6-----------------------------------------|
C#|-3--7--5--4--3—-7--5--6-----------------------------------------|
G#|-1--5--3--2--1—-5--3--4-----------------------------------------|
C#|----------------------------------------------------------------|

After Bridge:

D#|------------13----------------------------|
A#|---15-------15----------------------------|
F#|------------------------------------------|
C#|------------------------------------------|
G#|------------------------------------------|
C#|------------------------------------------|

Ending:

D#|--------13----13-13~--------13--15---------------|
A#|--13/15----15----------13/15--15--13-------------|
F#|-------------------------------------------------|
C#|-------------------------------------------------|
G#|-------------------------------------------------|
C#|-------------------------------------------------|


D#|--------13----13------17-----15-----13-----12----|
A#|--13/15----15----13-----15-15—-15-15—-15-15------|
F#|-------------------------------------------------|
C#|-------------------------------------------------|
G#|-------------------------------------------------|
C#|-------------------------------------------------|


Here is the link to the video: http://www.youtube.com/watch?v=GLYc_GgbSgE

I pretty much only focused on the guy on the right.


Once again, I have just typed the notes that are being played, listen to the song to get
the strumming rhythm and tempo. I hope you all enjoy this tab.
Tap to rate this tab
# A B C D E F G H I J K L M N O P Q R S T U V W X Y Z