Song name
# A B C D E F G H I J K L M N O P Q R S T U V W X Y Z

Devourment - Baby Killer tab

--- DEVOURMENT ---
                                   "Babykiller"
                     From album: "1.38" (1999)
                     

NOTES:
 " - tremolo
() - tremolo picking note
*  - tremolo picking notes
 x - hard palm muting
 = - sustained note

h - hammer on              ~ - vibrato
p - pull off               b - bend string
^ - pinch harmonics        p.m. - palm mute 
x - muted note             t - right hand tap
/ - slide up               \ - slide down

Tuning is B

Riff 1 (x8)
-|--------------|-----------------|
-|--------------|-----------------|
-|--------------|-----------------|
-|--------------|-----------------|
-|-5---4--3-2-3-|-5---222-111-001-|
-|-5---2--1-0-1-|-5---222-111-001-|
       .  . . .       ... ... ...

Outro 1
-|--------------------------|
-|--------------------------|
-|--------------------------|
-|--------------------------|
-|-2--3-2-3--4-3-4-3--5-4-5-|
-|-0--1-0-1--2-1-2-1--3-2-3-|
   .  . . .  . . . .  . . .

Riff 2 (x4)
-|-----------------------------|----------------------------|
-|-----------------------------|----------------------------|
-|-----------------------------|----------------------------|
-|-----------------------------|----------------------------|
-|-2--3-2-3--4-3-4--3--5-4-5---|-2--3-2-3--4-3-4--3-5-4-3---|
-|-0--1-0-1--2-1-2--1--3-2-3---|-0--1-0-1--2-1-2--1-3-2-1---|
   .  . . .  . . .  .  . . .     .  . . .  . . .  . . . .

Riff 3a                 Riff 3b
-|-------------------|-|------------------|---------||
-|-------------------|-|------------------|---------||
-|-------------------|-|------------------|---------||
-|-------------------|-|------------------|---------||
-|-------------------|-|-2-3-5-1-3-5------|-2-------||
-|-001133001133-[x8]-|-|-0-1-3-0-1-3-[x8]-|-0-------||
   ............          . . . . . .        .

Riff 4 (x4)
-|---------------------|-------------------------|
-|---------------------|-------------------------|
-|---------------------|-------------------------|
-|---------------------|-------------------------|
-|-4-2-3-5--5-5-3-4-6--|-4-2-3-5--555-333-444-6--|
-|-2-0-1-5--3-3-1-2-6--|-2-0-1-5--333-111-222-6--|
   . . .    . . . .      . . .    ... ... ...

Outro 2
-|-------------------|-------------------|
-|-------------------|-------------------|
-|-------------------|-------------------|
-|-------------------|-------------------|
-|-5-5-4-2-4-5-4-3-6-|-5-5-4-2-4-5-4-5---|
-|-3-3-2-0-2-3-2-1-4-|-3-3-2-0-2-3-2-3---|
   . . . . . . . . .   . . . . . . . .

Riff 5 (x4)
-|--------------------|--------------------|
-|--------------------|--------------------|
-|--------------------|--------------------|
-|--------------------|--------------------|
-|-5-5-4-2-4-5-4-3-6--|-5-5-4-2-4-5-4-5-6--|
-|-3-3-2-0-2-3-2-1-4--|-3-3-2-0-2-3-2-3-4--|
   . . . . . . . .      . . . . . . .

RIFF 3a, RIFF 5 (x4), RIFF 3a

Riff 6 (x8) [quick picking]
-|-----------------|-----------------|
-|-----------------|-----------------|
-|-----------------|-----------------|
-|-----------------|-----------------|
-|-2-4-2-3-4-4-5-5-|-2-4-2-3-4-4-3-3-|
-|-0-2-0-1-2-2-3-3-|-0-2-0-1-2-2-1-1-|
   . . . . . . . .   . . . . . . . .

Riff 7 (x4) 
-|-----------------|-----------------|
-|-----------------|-----------------|
-|-----------------|-----------------|
-|-----------------|-----------------|
-|-3-2-4-3-2-3-2-2-|-3-2-4-3-2-3-3-2-|
-|-1-0-2-1-0-1-0-2-|-1-0-2-1-0-1-3-2-|
   . . . . . . .     . . . . . . 

Riff 8 (x4)
-|--------------|---------------|
-|--------------|---------------|
-|--------------|---------------|
-|--------------|---------------|
-|-5-5---4--3-4-|-6-6---4-4-3-4-|
-|-5-5---2--1-2-|-6-6---2-2-1-2-|
         .  . .         . . . .

Riff 9 (x8......fade out.......
-|---------------------|-------------------|
-|---------------------|-------------------|
-|---------------------|-------------------|
-|---------------------|-------------------|
-|-2-3-2-4-3-2-3-2-3-4-|-2-3-2-4-3-2-2-4-6-|
-|-0-1-0-2-1-0-1-0-1-2-|-0-1-0-2-1-0-2-4-6-|
   . . . . . . . . . .   . . . . . .   .

END OF SONG
Tap to rate this tab
# A B C D E F G H I J K L M N O P Q R S T U V W X Y Z