Guitaretab - guitar tabs
Song name
# A B C D E F G H I J K L M N O P Q R S T U V W X Y Z

Dew-scented - Soul Poison tab

Artist: Dew-Scented
Album: Impact
Song: Soul Poison

fb - full bend       hb - half bend 
qb - quarter bend    t - tap bend 
^ - Hold bend        r - release bend 
~ - vibrato bend 
ph - pinched harmonic      nh  natural harmonic 
ah  artificial harmonic   hh  harp harmonic 
.  palm mute            x  staccato mute 
, - light palm mute      ; - heavy palm mute 
/ - slide up to            \ - slide down to        
h - hammer on              p - pull off 
 - sustained note         * - see comment 
" - tremolo note           <> - Trill 
L  left channel only      R  right channel only 
= - 12 string guitar part

Tuning D G C F A D

Riff 1a 
|-----------------------------------------------------------|
|-----------------------------------------------------------| 
|-----------------------------------------------------------|
|-----------------------------------------------------------|
|-------7"-----------8"-----------7"-----7h8---8h10---10h11-| 
|-0-0-0----0-0-0-000----0-0-0-000----0-0-----0------0-------|
  . . .    . . . ...    . . . ...    . .     .      .

Riff 1b 
|---------------------------------------------------------|
|---------------------------------------------------------| 
|---------------------------------------------------------|
|---------------------------------------------------------|
|-------7"-----------8"-----------7"-----7h8---7/8---8ph~-| 
|-0-0-0----0-0-0-000----0-0-0-000----0-0-----0-5/6-0------|
  . . .    . . . ...    . . . ...    . .     .     .

Riff 1a 
Riff 1b
Riff 1a 
Riff 1b
Riff 1a
Riff 1b

Riff 2a 
|-------------------------------|
|-------------------------------| 
|-------------------------------|
|--------3--------6-3-----------|
|---2----1-2-2----4-1-----7-----| 
|-0-0--0---0-0--0-----0-0---0-0-|
  .    .        .     . .   . . 

Riff 2b 
|-------------------------------|
|-------------------------------| 
|-------------------------------|
|--------3----------------------|
|---2----1-2-2------1---4-1---1-| 
|-0-0--0---0-0--0-3---3-----3---|
  .    .        . . . .   . .

Riff 2a
Riff 2b
Riff 2a
Riff 2b 
Riff 2a
Riff 2b
Riff 1a
Riff 1b 
Riff 1a 
Riff 1b 

Riff 3a 
|-------------------------------------------------------------------|
|-------------------------------------------------------------------| 
|-------------------------------------------------------------------|
|-------------------------------------------------------------------|
|-3\2-------3\2-----3\2-------6---3\2-------3\2-----------------8---| 
|-1\0-0-0-0-1\0-0-0-1\0-0-44444---1\0-0-0-0-1\0-0-0-0000000000006---|
      . . .     . .     . ....        . . .     . . ............

Riff 3b 
|-------------------------------------------------------------------|
|-------------------------------------------------------------------| 
|-------------------------------------------------------------------|
|-------------------------------------------------------------------|
|-3\2-------3\2-----3\2-------6---3\2-------3\2---------------------| 
|-1\0-0-0-0-1\0-0-0-1\0-0-44444---1\0-0-0-0-1\0-0-0-0000000000006ph-|
      . . .     . .     . ....        . . .     . . ............

Riff 3a
Riff 3b 

Fill 1 
|-------------------------------|
|-------------------------------| 
|-------------------------------|
|-------------------------------| gtr 1
|-------------------------------| 
|-0"----------------------------|
  .
|-------------------------------|
|-------------------------------| 
|-------------------------------|
|-------------------------------| gtr 2
|-------------------------------| 
|-------------0"----------------|
              .
[ Tab from: http://www.guitaretab.com/d/dew-scented/96131.html ]
Riff 4a 
|----------------------------------|
|----------------------------------| 
|----------------------------------|
|------------------------------3h5-| gtr 1
|---------5h7----7h8----7h8--------| 
|-00000000---0000---0000---0000----|
  ........   ....   ....   ....
|----------------------------------|
|----------------------------------| 
|----------------------------------|
|----------------------------------| gtr 2
|----------------------------------| 
|-00000000000000000000000000000000-|
  ................................

Riff 4b 
|-----------------------------|
|-----------------------------| 
|-----------------------------|
|-----------------------5-----| gtr 1
|---------5h7----7h8----3--3--| 
|-00000000---0000---0000---1--|
  ........   ....   .... 
|-----------------------------|
|-----------------------------| 
|-----------------------------|
|-----------------------------| gtr 2
|-----------------------------| 
|-00000000000000000000000000--|
  ..........................

Riff 4a 
Riff 4b 
Riff 4a 
Riff 4b
Riff 4a 
Riff 4b
Riff 4a 
Riff 4b 
Riff 4a 
Riff 4b
Riff 2a 
Riff 2b 
Riff 2a 
Riff 2b
Riff 2a 
Riff 2b 
Riff 2a 
Riff 2b 
Riff 1a 
Riff 1b 
Riff 1a 
Riff 1b 

Riff 5a 
|------------------------------------------------------------|
|------------------------------------------------------------| 
|------------------------------------------------------------|
|----------------------------------------9/10--10/11---12/13-| gtr 1
|-------7"-----------8"-----------7"-----7/8---8-/10---10/11-| 
|-0-0-0----0-0-0-000----0-0-0-000----0-0-----0-------0-------|
  . . .    . . . ...    . . . ...    . .     .       .

|------------------------------------------------------------|
|------------------------------------------------------------| 
|------------------------------------------------------------|
|----------------------------------------9/10--10/11---12/13-| gtr 2
|---2-------------------------2----------7/8---8-/10---10/11-| 
|-0-0-------------------0-0-0-0------0-0-----0-------0-------|
  .                     . . .        . .     .       .

Riff  
|----------------------------------------------------------|
|----------------------------------------------------------| 
|----------------------------------------------------------|
|----------------------------------------9/10--------------| gtr 1
|-------7"-----------8"-----------7"-----7/8----7/8---8ph~-| 
|-0-0-0----0-0-0-000----0-0-0-000----0-0------0-5/6-0------|
  . . .    . . . ...    . . . ...    . .      .     .

|----------------------------------------------------------|
|----------------------------------------------------------| 
|----------------------------------------------------------|
|----------------------------------------9/10--------------| gtr 2
|---2-------------------------2----------7/8----7/8---8ph~-| 
|-0-0-------------------0-0-0-0------0-0------0-5/6-0------|
  .                     . . .        . .      .     .
Riff 5a x 1 

Riff 5c 
|----------------------------------------------------------|
|----------------------------------------------------------| 
|----------------------------------------------------------|
|----------------------------------------9/10--------------|
|---2-------------------------2----------7/8----7/8---8ph~-| 
|-0-0-------------------0-0-0-0------0-0------0-5/6-0------|
  .                     . . .        . .      .     .


Riff 6a 
|------------------------------------------------------------|
|------------------------------------------------------------| 
|------------------------------------------------------------|
|----------------------------------------9/10--10/11---12/13-|
|-------7"-----------8"-----------7"-----7/8---8-/10---10/11-| 
|-0-0-0----0-0-0-000----0-0-0-000----0-0-----0-------0-------|
  . . .    . . . ...    . . . ...    . .     .       .

Riff 6b 
|----------------------------------------------------------|
|----------------------------------------------------------| 
|----------------------------------------------------------|
|----------------------------------------9/10--------------| gtr 1
|-------7"-----------8"-----------7"-----7/8----7/8---8ph~-| 
|-0-0-0----0-0-0-000----0-0-0-000----0-0------0-5/6-0------|
  . . .    . . . ...    . . . ...    . .      .     .

Riff 6a
Riff 6b
Riff 3a
Riff 3b
Riff 3a
Riff 3b
Riff 3a
Riff 3b 
Riff 3a
Riff 3b 
Riff 2a 
Riff 2b 
Riff 2a  
Riff 2b 
Riff 2a 
Riff 2b 
Riff 2a 
Riff 2b