Guitaretab - guitar tabs
Song name
# A B C D E F G H I J K L M N O P Q R S T U V W X Y Z

Dewa 19 - Selimut Hati tab

-------------------------------------------------------------------------------
			     Selimut Hati  DEWA 19
-------------------------------------------------------------------------------
Tabbed by:pvt. yusuf
Email:totenkopf_55@yahoo.com

Tuning:standard

e|-------------------------------------------------------------0-1------5-5--|
B|---------------------1h3p1--1-----------------------1h3p1~-3-----1-1-------|
G|-2--0------------2-3----------3-2---0-2-0-2---0-2-3------------------5-5---|
D|-----3-2--0----3-----------------------------------------------------------|
A|------------3--------------------------------------------------------------|
E|---------------------------------------------------------------------------|
[ Tab from: http://www.guitaretab.com/d/dewa-19/157032.html ]
e|--5-3-1----0-1-0-----------------5-----------5----------5-8--5-------------|
B|---------3-------3--1---3----6-8---8-6---6-8---6~---6-8---------8-6---8-6~-|
G|-5--------------------2----7-----------7----------7-----------------7------|
D|---------------------------------------------------------------------------|
A|---------------------------------------------------------------------------|
E|---------------------------------------------------------------------------|

e|-5-------------------------------------------------------------------------|
B|---8-6-5-6-5---------------------------------------------------------------|
G|-------------7-5-----------------------------------------------------------|
D|-----------------8~~-------------------------------------------------------|
A|---------------------------------------------------------------------------|
E|---------------------------------------------------------------------------|

| h  hammer-on
| p  pull-off
| ~  vibrato
===============================================================================

Related for Selimut Hati tab