Song name
# A B C D E F G H I J K L M N O P Q R S T U V W X Y Z

Dewa - Lelaki Pencemburu tab

 SONG : LELAKI PENCEMBURU
 BAND : DeWa
ALBUM : REPUBLIK-CINTA
MUSIC & LYRIC : AHMAD DHANI

Intro: F#M

F#5          A5                      E5                     B
Detak di Setiap Detik.. Jantung di dada ini.. semakin cepat
F#5          A5                       E5                        B
Saat Kau Meng ucapkan.. Kata kata yang mungkin.. Tak Masuk Akal
F#5           A5                       E5                   D
Kita harus jenius.. untuk hanya mengendus.. konspirasi tak mulus
F#5           A5                       E5                     D
Hatiku Yang Hangus.. Ingin terus meringkus.. Akal Bulus dan Rakus


Reff:
F#5            A5                 E5
Aku Takkan Peduli.. Siapa Yang Berani
           D5            F#5
Mendekati Kamu.. Akan Kubunuh
             A5                   E5
Aku Hanya Lelaki.. Yang Sedang Cemburu
           D5               F#5
Terbakar Asmara.. mencintai kamu

I Am Just A Jealous Guy.. A Real Mad n Jealous Guy
              F#5                 A5                 E5
I'm a Jealous Guy.. I'm a jealous guy.. I'm a jealous guy..I'm a jealous


F#5               A5                      E5                           D
Jangan Sampai terbius.. Lelaki Yang tak becus..Yang berwajah seperti Tikus
F#5            A5                        E5                    D
Aku sangat serius.. Merebut Cinta yang tulus.. Meski aku terhunus


~Back To Reff~


Solo Bass

Solo Guitar:
|---------10-0---------------12--14/16--14^----16-14---------|
|----9-0--------------12/14--------------------------15-15^--|
|------------------------------------------------------------|
|------------------------------------------------------------|
|------------------------------------------------------------|
|------------------------------------------------------------|


|---15/18--18-16----20^-----20-19-17-15^-17------------------|
|----------------18-------------------------18^^-------------|
|------------------------------------------------------------|
|------------------------------------------------------------|
|------------------------------------------------------------|
|------------------------------------------------------------|
|------------------------------------------------------------|

~Back To Reff~


Well, This is my 1st Tab, I Find it my self, I think it's correct because I saw DeWa's 
When he plays the solo part.. Enjoy it ^o^
Tap to rate this tab
 
# A B C D E F G H I J K L M N O P Q R S T U V W X Y Z