Song name
# A B C D E F G H I J K L M N O P Q R S T U V W X Y Z

Dewa - Cinta Gila tab

Highlighted       Show chord diagrams
 SONG: Cinta Gila
 BAND: DeWa
ALBUM: LASKAR CINTA

e|-------------------------------------------------------------------------|
B|-------------------------------------------------------------------------|
G|-------------------------------------------------------------------------|
D|-------------------------------------------------------------------------|
A|----3/7^---9/14---8--------------3/7---9/14---8--------------------------|
E|----1/5^---7/12---6--------------1/5---7/12---6--------------------------|

                      ~  repeated 2 times  ~

A5         E5
Hati-hati dengan hatiku
A5         E5
Karna hatiku mudah layu
D5            C5
Jangan kamu bermain-main
E5
Karna ku tak main-main

A5             E5
Sungguh aku bersungguh-sungguh
A5         E5
Cintaku ini cinta mati
D5        C5
Mati-matian aku
E5
Pertahankan cintaku


Reff:
 A5         D5    G5       E5
Aku takkan rela.. bila kau tinggalkan
A5          D5     E5
Aku kan berbuat.. apa saja
 F5         E5            A5
untuk mendapatkan kamu lagi


e|-------------------------------------------------------------------------|
B|-------------------------------------------------------------------------|
G|-------------------------------------------------------------------------|
D|-------------------------------------------------------------------------|
A|----3/7^---9/14---8--------------3/7---9/14---8--------------------------|
E|----1/5^---7/12---6--------------1/5---7/12---6--------------------------|

                      ~  repeated 2 times  ~

A5         E5
Rupa-rupa alasan kamu
A5             E5
Untuk tetap tinggalkan aku
D5           C5
Rupanya kamu memang
E5
Sudah tak cinta aku

A5            E5
Cintamu yang berbisa
A5           E5
Bisa racuni aku
D5          C5
Bisa-bisanya kamu
E5
Mau tinggalkan aku

~Back to Reff~

Solo Bass

Solo Guitar

~Back to Reff~
Tap to rate this tab
# A B C D E F G H I J K L M N O P Q R S T U V W X Y Z