Song name
# A B C D E F G H I J K L M N O P Q R S T U V W X Y Z

Dewey Cox - Walk Hard tab

Tuning: Standard

e|--------------------------------------------------------------------------|
B|--------------------------------------------------------------------------|
G|--------------------------------------------------------------------------|
D|-------------------------------4------------------------------------------|
A|--2-4-4b------4b--4b--2---4/5-----4b--4b--2-------------------------------|
E|---------3----------------------------------------------------------------|

e|----2-2----2-2------------2-2---2-2------------3-3----3-3--------------|
B|----3-3----3-3------------3-3---3-3------------3-3----3-3--------------|
G|----4-4----4-4------------2-2---2-2-----X2-----0-0----0-0--------------|
D|----4-4----4-4---X2----0-----------------------0-0----0-0----X2--------|
A|--2-2-2----2-2----------------0----------------2-2--2-2-2--------------|
E|---------2-2-2-------------------------------3-3-3----3-3--------------|

e|--------------------------------------------------------------------|
B|----2-2---2-2-------------------------------------------------------|
G|----2-2---2-2---3-3----3-3------------------------------------------|
D|--2-2-2---2-2---4-4----4-4---------------repeat for any verse-------|
A|--------0-------4-4--4-4-4------------------------------------------|
E|--------------2-2-2----2-2------------------------------------------|


Tap to rate this tab
# A B C D E F G H I J K L M N O P Q R S T U V W X Y Z