Song name
# A B C D E F G H I J K L M N O P Q R S T U V W X Y Z

Dewolff - Wicked Moon tab

Tabbed by: Johan


Tuning: standard

e|-------------------------------------------------------------------------|
B|-------------------------------------------------------------------------|
G|-------3-------3--------------------------3-------3----------------------|
D|-5p3-----5p3-----5p3---3-5-5-5------5p3-----5p3-----5p3---3-5-5-5--------|
A|-----5-------5-------5------------------5-------5-------5----------------|
E|-------------------------------------------------------------------------|

e|----------------------------------------------|
B|----------------------------------------------|
G|--------8---------8---------------------------|
D|-10p8-----10p8------10p8----8-10-10-10--------|
A|------10-------10--------10-------------------|
E|----------------------------------------------|

e|------------------------------------|
B|------------------------------------|
G|-------3-------3--------------------|
D|-5p3-----5p3-----5p3---3-5-5-5------|
A|-----5-------5-------5--------------|
E|------------------------------------|

e|-------------------------------------------------------------------------|
B|---7---8---7----------------5---6---5------------------------------------|
G|---7---8---7----------------5---6---5------------------------------------|
D|-------------------------------------------------------------------------|
A|-------------------------------------------------------------------------|
E|-------------------------------------------------------------------------|




************************************

| p   pull-off

************************************
Tap to rate this tab
 
# A B C D E F G H I J K L M N O P Q R S T U V W X Y Z