Dewolff - Dont You Go Up The Sky tab

Enjoy!

Maybe, when I have more time I will try to tab the rest of this great song.
Also I didn't include the rhythm, so listen to the song for it.

|------------------------------|
|------------------------------|
|------------------------------| 2x
|9-7-5---------------5-------5-|
|------7-5h7-7-7-5h7---7-5h7---|
|------------------------------|

|------------------------------------|
|------------------------------------|
|------------------------------7/8/9-| 
|9-7-5---------------5-------5-------|
|------7-5h7-7-7-5-7---7-5-7---------|
|------------------------------------|

|------------------------------|
|------------------------------|
|------------------------------| 
|9-7-5---------------5-------5-|
|------7-5h7-7-7-5h7---7-5h7---|
|------------------------------|


|---------------------|
|---------------------|
|---------------------|
|9-7-0----------------|
|------7-9-9-7-0------|
|----------------8-10-|
Tap to rate this tab
 
# A B C D E F G H I J K L M N O P Q R S T U V W X Y Z