Dewolff - Dont You Go Up The Sky tab

This is my first tab. Enjoy it!

--------------------------------|
--------------------------------|
--------------------------------|
--9-7-5-------------5-5---------|
--------7-5-5-7-7-5-----7-5-7---|
--------------------------------|

----------------------------------|
----------------------------------|
-------------------------------9--|
--9-7-5-------------5-5---7--9----|
--------7-5-5-7-7-5-----7---------|
----------------------------------|
Tap to rate this tab
 
# A B C D E F G H I J K L M N O P Q R S T U V W X Y Z